Johann Sebastian Bach

home > Johann Sebastian B...

Sonata For Flute And Basso Continuo No 2 In Em, Allegro (2) Tab

Johann Sebastian Bach

Difficulty: nolevelnolevel

by alexribeiro

tuner correct add songbook print version text version save to e-mail
chordsukulelecavacokeyboardtabbassdrumsharmonicsflute Guitar Pro
chords

Sonata For Flute And Basso Continuo No 2 In Em, Allegro (2)

  		1 
E|------------------------|-----------------------|--------------------0---| 
B|------5-4-5--0----------|-----5-4-5--0----------|----------------0-------| 
G||*---------------------2-|--4------------------2-|--4---------0-2---------| 
D||*--2------------2-4-5---|---------------2-4-5---|-----2-1-2--------------| 
A|------------------------|-----------------------|------------2---------0-| 
E|------------------------|--0--------------------|----------------0-2-3---| 

4 
--------------0-2---5---|-----3-2-3--0------0-5-|--2-3-2-----------------3-| 
-----4------4-----------|---------------1-3-----|--------5-3-1-0---0-1-3---| 
-----4-2-4--------------|------------0--2-------|----------------2-0-------| 
------------4---2-1-----|--2--------------------|--0-----------4-----------| 
--2-----------------4-2-|-------------------3---|----------------------2---| 
------------------------|-----------------------|--------------------------| 

7 
--0---------------0-------|--0---------------0-------| 
----1-------0-1-3---1-0---|----0---------0-4---0-----| 
------2-1-2-------------2-|------0---0-2---------2-0-| 
--------------------------|--------4-----------------| 
--3-----------0-------0---|--2-----------------------| 
------------------2-------|--------------3---0---3---| 

9 
----0---------------------|----2-----------0-2-------|--5---------7--3-------| 
--1-------------0-1-------|--4---0---0-2-4-----4-2-0-|--4------------------0-| 
------------0-2-----2-0---|--------2-----------------|--4--4---4-------0-2---| 
------4-2-4-------------4-|----------1---2---1---2---|-------7-------2-------| 
--0---2---0-----------0---|--2---4-------------------|--6---------6----------| 
--------------3---2-------|--------------------------|-----------------------| 

12      trill 
-----2-32--------0--|--0-----------------|--------------------------| 
--1-----0-----0-----|-----0--0--0--0--0--|--0-5-3-1-0-1-------------| 
-----2-----2--------|--------------------|--------------2-4-0-2-----| 
--------------------|--2-----------------|----------------------4-5-| 
-----------------2--|--------------------|--------------------------| 
--------------------|--0-----------------|------0---0---0---0---0---| 

15 
------0---0---0---0---0---|--0-5-4-2-0-2-------------| 
--------------------------|--------------3-5-2-3---2-| 
----2-1-------------------|----------------------4---| 
--2-----4-2-4-0-2---------|--------------------------| 
------------------4-5-2-4-|--0---0---0---0---0---0---| 
--0-----------------------|--------------------------| 

17 
------5---5---5---5---5---|-----10-9-----------------------| 
----3-2-------------------|--10------12-10-12-8-10-7-8---7-| 
--2-----4-2-4-0-2---------|----------------------------9---| 
------------------4-5-2-4-|--0-----0----0-----0----0---0---| 
--0-----------------------|--------------------------------| 
--------------------------|--------------------------------| 

19 
-----10-8-10-------0-1---|--0--8-7-8--0----------|-----7-5-7-------------| 
--------------6--------3-|-----------------3-5---|--3---------3----1-3-0-| 
--7----------------------|---------------------5-|-----------------------| 
--0-------0--------------|-----------------------|-----0-------------2---| 
-----9-------------------|--3--7---------0-------|--2---------0----------| 
--------------8--7---3---|---------8--7------2---|---------7-----3-------| 

22 
-----5-3-5-------------|-----3-2-3-------------|-----3-2-3-------------| 
--1---------1----0-1---|--0--------------------|-----1-----------------| 
---------------------2-|-----------------------|-----------------------| 
-------------------0---|------------4--5-4-2-0-|--2---------2--3-2-0---| 
--0--3---0-------------|-----------------------|---------------------3-| 
------------3--2-------|--3--------------------|-----------------------| 

25 
-----3-2-3-------------|-----3-2-3-------------|-------------------0---7-| 
-----0-----------------|-----------------------|-------------0-1-3---6---| 
-----------------------|-----2-----------------|-----0---0-2-------------| 
--0--------------------|-----------------------|-------4-----0-----------| 
------------2--3-2-0---|--3---------3--5-3-2-0-|--2--------------2-------| 
---------------------3-|-----------------------|-----3---------------3---| 

28 
--0---------------0-2-3-8-|----------------0-2-3----10-| 
----3-1-0---0-1-3---------|--7-5-----0-1-3-------10----| 
----------2---------------|------7-5-------------------| 
--------------2-----------|--0-----------4---0---------| 
--3---------------3---0---|----------------------------| 
--------------------------|----------------------7-----| 

30 
------5-8-----3-7-----2-5-|------0-3-------2-------0-| 
--8-------7---0---5-------|--3-------1---3---0---1---| 
----9-5-----7-------5-2---|----4-0-----2-------0-----| 
--------------------------|--------------4-------2---| 
--7-------5-------3-------|--2-------0---------------| 
--------------------------|------------------3-------| 

32 
--------------------------|--------------------------|--2------------------0-2-| 
------0-3-------1-------0-|------------------1-----1-|--1--------0---0-1-3-----| 
--2-------0---2-------0---|----2-0---0-------2-0-----|--2--2-0-2---2-----------| 
----4-0-----2-----4-0-----|--2-----4---4-2-0-----4-2-|--0----------4---0-------| 
--------------3---5---2---|--3---0---2-------0-------|---------------------3---| 
--2-------0---------------|--------------3-----------|-------------------------| 

35                trill 
--3-2-0------------------|-----3-2-3-------------|------------------------| 
--------3-1-0------------|------------3------0-1-|--3------0-2-3------0-2-| 
------------------2----0-|--0------------0-2-----|-----0-2--------0-2-----| 
------------0-----0--0---|--0--------------------|--0---------------------| 
--2-----3------3---------|--2--------------------|--2---------------------| 
-------------------------|--3--------------------|--2---------------------| 

38 
-------------------------|--0----------------------|--3--------2-0---------6-| 
--3--------1-0---------0-|-----------3-2-0-------2-|--2------------3-2-0-2---| 
--1------------2-1---1---|--3--0---0-------3-1-3---|--0----------------------| 
--2----------------4-0---|-------4-----2-----------|-----2-0-2---------------| 
-----2-0-2---------------|--4--------------4---2---|--2----------4---1-------| 
--0----------4---0-------|-------------------------|---------------------2---| 

41            trill 
--7----0------------|----------------||-----------------------| 
--0------3----2---0-|--0-------------||--0--0---0-------------| 
--7------4----3-----|---------------*||-------2---------------| 
--0------4----2-----|---------------*||------------5--4-2-----| 
--------------------|--2-------------||--2----------------5-4-| 
-----7--------2-----|----------------||-----------------------| 

44 
------------2--10-8-7----|------------7---0---8-5---|----5---0---8-7-5-0-7-5-4-| 
-----0-1-0------------10-|--9-------9---9---------8-|--6---6---------------0---| 
-------------------------|----7---7---------5-------|----------7-----------7---| 
------------0------------|------9-----------7-------|--------------0-----------| 
--2----------------------|--7-----------------------|--0-------8-------7-------| 
---------------7---------|--------------------------|----------------------0---| 

47 
--5---------0--8-7-5---|------------5-------7-----|------------7-5-----5-3-2-| 
---------------------8-|--7-------7---7---0---8-7-|--5-8-5---------8-----1---| 
--5--2-4-2-------------|----5---5-------7-0-------|--------7-5-------7---2---| 
-----------------------|------7-------------------|--5---------------0---0---| 
--0---------3--0-------|--5-----------------------|----------7---------------| 
-----------------------|--------------------------|--------------8-----------| 

50 
--3-----------------3---|-----2------------------|----------------0---5---| 
--0---------0-2-3-------|--------------------3---|-----1------1-3---------| 
--0--0---0--------------|--------------0-2-----0-|--2--2-1-2--------------| 
-------4----0-----------|--0--0---0--4---0-2-4---|------------2---------0-| 
------------------0-2-3-|-------3----------------|----------------0-2-3---| 
--3-------------3-------|------------------------|------------------------| 

53 
-----3--------------0---|-----------------------|-----12------------------| 
----------------0-------|-----3------7--8-7-5---|--8----------8--10-8-7---| 
------------0-2---------|---------------------7-|-----------------------9-| 
--2--2-1-2--------------|-----------------------|-----9--8-9--------------| 
------------2---------0-|--2--2-1-2-------------|-------------------------| 
----------------0-2-3---|-----------------------|-------------------------| 

56 
-----10-----------------|-----9-----------------|----7-5-3-2-3---2---------| 
--7---------------------|------------5--7-5-3---|--3-----------5---3-5-2-3-| 
-------------7--9-7-6---|--9------------------6-|--------------------------| 
-----9--8-9-----------9-|-----9-8-9-------------|--------------------------| 
------------------------|-----------------------|------2---2---2---2---2---| 
------------------------|-----------------------|--------------------------| 

59 
--------------------------|----0---------------------| 
--0---0---0---0---0---0---|--0---4-2-0-1---0---------| 
--------------------------|--------------2---0-2---0-| 
----2-1-------------------|----------------------4---| 
--2-----4-2-3-0-2---0-----|--------------------------| 
------------------3---2-3-|--0---0---0---0---0---0---| 

61 
------0---0---0---0---0---|--0-5-4-2-0-2---0---------| 
--------------------------|--------------3---2-3-0-2-| 
----2-1-------------------|--------------------------| 
--2-----4-2-4-0-2---------|--------------------------| 
------------------4-5-2-4-|--0---0---0---0---0---0---| 
--0-----------------------|--------------------------| 

63 
------5---5---5---5---5---|-----10-9-----------------------| 
----3-2-0---0-------------|--10------12-10-12-8-10-7-8---7-| 
--2-------2---0-2---0-----|----------------------------9---| 
------------------4---2-4-|--0-----0----0-----0----0---0---| 
--0-----------------------|--------------------------------| 
--------------------------|--------------------------------| 

65 
------10---10---10---10----10---|--10-9-7-5-3-5-2-3---2-----| 
----8-7-------------------------|-------------------5---3-5-| 
--7------9-7--9----7------------|--0------------------------| 
--0-------------10---9--10-7--9-|-------5-4-2---------------| 
--------------------------------|---------------------------| 
--------------------------------|---------------------------| 

87 
----7-5-3---3-------------|----5-3-2-0-2---0---------| 
----------7---5-7---5-2-3-|--0-----------3---1-3-0-1-| 
--6---------------7-------|--0-----------------------| 
--7---4-2-0-----------4---|------2-0-------------2---| 
--------------------------|----------3---------------| 
--------------------------|--------------------------| 

69 
----3-2-0---0-------------|-----------------------|-----------------------| 
----------4---2-4-0-1---0-|-----5-4-5-------------|-----5-4-5-------------| 
--2-------------------2---|--0--------------------|-----2-----------------| 
--4---1---------------1---|--2--------------------|-----------------------| 
--------4-2---------------|------------2--3-2-0---|--3---------3--5-3-2-0-| 
--------------------------|---------------------3-|-----------------------| 

72 
-----------------------|-----------------------|-----------------------1-| 
-----5-4-5-------------|-----5-4-5-------------|-----------------0-1-3---| 
-----0-----------------|-----------------------|-------------0-2---------| 
-----------------------|-----4-----------------|-----2-1-2-4-------------| 
--2--------------------|--0---------0--2-0-----|---------------------2---| 
------------3--5-3-2-0-|-------------------3-2-|--3--------------4-------| 

75 
--0---------------------7-|----------------------7-9-11-| 
----1-------0-----5-7-8---|--10-7-------5-7-8-10--------| 
------2-1-2---5-7---------|-------8-6-8-----------------| 
--------------------------|------------------------7----| 
--3---------------3---7---|--9----0-------6---9---------| 
--------------------------|-----------------------------| 

77 
--12-8-------10-7-0---8-5-----|--7-------5-------3-------| 
----------10--------8-------7-|----8---5---7---4---5-----| 
-------11-----------------7---|------5-------4-------2-5-| 
-------------9--------7-------|--5-------4-------2-------| 
--10--------------------------|--------------------------| 
------------------------------|--------------------------| 

79 
--2-------0---------------|------------------5-----5-| 
----3---0---1-----3-0-----|--1-------0---------------| 
------0---------2-------0-|----2-------0-------------| 
--0-----------4-------2---|------1-4-----1-2-4-2-1-2-| 
----------3-------2-------|--0-----------------------| 
--------------------------|----------3---------------| 

81                                               trill 
--5--------3-2-3-5-7-9-11-|--12-11-9-------0-----2----0-| 
--4------0----------------|----------12-10-8-----4------| 
--4--4--------------------|--0-------------------4------| 
-------7-------------7----|----------7-----9--7---------| 
--6-----------------------|-------------------------2---| 
--------------------------|-----------------------------| 

83 
--0--12-11-12--7-----------|--7-----------7------4-5-|--7--------------------0-| 
--0-----------------7-8-10-|-------7-8-10----5-7-----|--5--------3---0---0-----| 
--0---------------9--------|-----9-------------------|-------------5---5---5---| 
---------------------------|--0----------------------|-----7-6-7---------------| 
---------------------------|-------------------------|--3----------------------| 
--0------------------------|-------------------------|-------------------------| 

86                                                                 trill 
--5------------0---0---5-|-----------0-2-3-5-8-7-6-|--7----12-0---------0-| 
-----------8-6---6---6---|--4--------------0-------|--0-------8----7------| 
--5----------------------|-----2-1-2---------------|--0-------------------| 
-----7-6-7---------------|---------------------4---|------------------7---| 
--8----------------------|--0----------------------|----------------------| 
-------------------------|-------------------------|-----0----7----7------| 

89 
--0------------|| 
--0------------|| 
--0------------|| 
--2------------|| 
---------------|| 
--0------------|| 
	  

Search Paypal
auto scroll beats size up size down change color hide chords drawings
tab show chords e-chords YouTube Clip e-chords hide all tabs e-chords go to top tab