Johann Sebastian Bach

home > Johann Sebastian B...

Badinerie (from Orchestral Suite No. 2 In B Minor) Bwv 1067 Tab

Johann Sebastian Bach

Difficulty: ExpertExpert

by alexribeiro

tuner correct add songbook print version text version save to e-mail
chordsukulelecavacokeyboardtabbassdrumsharmonicsflute Guitar Pro
chords

Badinerie (from Orchestral Suite No. 2 In B Minor) Bwv 1067

  		(2/4) 

1 
   E S  S   E  S S E S S   Q   S S S S   S S S S S S S S   E E  E S  S 
|----8----|-0----0---0---|-------------|-----------------|--------8----| 
|-10---10-|---10---1---1-|---------1---|-0---0-----0-3-0-|-1---10---10-| 
|----9----|--------------|-2-----2---2-|---2---2-1-------|---2----9----| 
|---------|---10---2-----|---2-2-------|-0---------------|---2---------| 
|--0------|-0--------3---|-0---3---0---|-----2-----------|-0----0------| 
|---------|--------------|-------------|---------0---4---|-------------| 
   E E      E  E   E E     E E E   E     E   E   E   E     E E  E E 

6 
   E  S S E S S   Q   S S E   +S  S E +S  S E   E E S S E   +S  S E +S  S E 
|-0----0---0---|-----------|-------------5---|-----0---0-|-(0)---0-(0)-8-0-| 
|---10---1---1-|-----1-0-1-|-(1)-0-1-(1)-----|---0---4---|-----------------| 
|--------------|-2---------|---------------5-|-5-0-----0-|-----8-----------| 
|---10---2-----|---2-----2-|-------0-------4-|-----------|-------7---------| 
|-0--------3---|-0---0-----|----------0------|-----3-----|--0-------9------| 
|--------------|-----------|--2--------------|-3---------|---------------8-| 
  E  E   E E     E E E   E    E    E  E    E   E E E   E    E    E  E    E 

11 
  E E S S S S   S S S S S S S S  S S S S S S S S    S S S S S S S S 
|-0-----0---0-|---0---0-----5---|---------0-3-0---|-0-5-0---0-7-0---| 
|---4-0---8---|-7---7-----7---7-|-8-7-8-7-------4-|-------4---------| 
|-----0-------|---------8-------|-------------0---|-----0---------8-| 
|---4---------|-7---4-----------|---------2-------|-------------5---| 
|-2-------7---|-------------6---|-7---------------|-3---------------| 
|-------------|---------7-------|-----0-----------|---------7-------| 
  E E E   E     E   E   E   E     E   E   E   E     E   E   E   E 

15 
  S S S S S S S S   S S S S E E   Q          E S S 
|-0-8-0---0-8-7-5-|-7-----0-3-2-|-0---||-||--0-3-0-| 
|-----------------|---8-7-----4-|-0--o||-||o-------| 
|-------8---------|-0-------4-2-|-0---||-||----4---| 
|-----7-------7---|-------------|-----||-||--------| 
|-0-------0-------|-----------2-|----o||-||o-------| 
|-----------------|-----0-------|-0---||-||--0-----| 
  E   E   E   E 

19 
  E S S E S S   Q   E E   E S S E S S   E E E S S   E S S E S S 
|---0---------|---------|-----0-3-1-0-|-1-----5---|---1----------| 
|-0---0---0---|---------|-3-2---------|---3-6---6-|-3---3-0-3-0--| 
|---0---0---0-|-----3-2-|-------------|---2---7---|--------------| 
|-------------|-2-----2-|---2---------|-0---0-----|-------0------| 
|-------2-----|-----4---|-0-----4-0---|-----------|-2-------2----| 
|-0-------3---|-0-3-----|-------------|-----------|---3----------| 
  E E   E E     E E E E   E E   E E     E E E E     E E   E E 

24 
  Q   +S  S S S   S S S S S S S S   S S S S S S S S   S S S S S S S S 
|-----------0---|-----------------|-0---0-----0-----|---1-------3-----| 
|---------1---1-|-3-1-3-----3-6-3-|---3---3-1---1-0-|-1---1-0-1---1-0-| 
|-0---(0)-------|-------5-4-------|-----------------|-----------------| 
|-3-0--2--------|-3---0---5-------|-----------------|-----------------| 
|-----------3---|-----------------|-3-------1-------|-0---------------| 
|---------------|-------------3---|-----------------|---------3-------| 
  E E  E    E     E   E   E   E     Q       Q         Q       Q 

28 
   S S S S S S S S   S S S S E E   Q   E S S   +S  S E +S  S  E   E E S S E 
|---5-------5-3---|-3-0-----0---|-----0---0-|-(0)---0-(0)-8----|-0----------| 
|-------0-------6-|-----3-1---3-|-1-----3---|-----3------------|---3-3---3--| 
|-5---5---5-------|---------0---|---0---0---|-------0--------9-|---0---5----| 
|---------3-------|-2---3-------|-----------|------------------|------------| 
|-0---------------|-------------|-3---3-----|--3------------10-|------------| 
|-----------------|-----------3-|-----------|----------8-------|-3---4---0--| 
  Q       Q         E   E   E E   E E E E      E    E  E     E   E E E   E 

33 
 +S  S E +S  S E   E E  E S  S   E E S S S S   E E S S S S   S S S S S S S S 
|------------7---|--------8----|-3-1-5-3---0-|-0---1-0-----|-----1-----------| 
|(3)---3-(3)-----|-----10---10-|-3-------6---|---3-----3-1-|---3---3---------| 
|----5---------7-|-7-5----9----|-2-2---------|---2---------|-3-------3-2-3-2-| 
|----------------|---7---------|-0---0-------|-0---0-------|-0---------------| 
|------2--7------|-0----0------|---------0---|-------------|-----------------| 
|-4------------0-|-------------|-------------|-------------|-----------------| 
  E    E  E    E   E E  E E      E E E   E     E E Q         H 

38 
  E E E E   E S S E S S   S S S S E S S   E E S S S S   Q 
|---------|-------------|---------0---0-|-5-0---------|-----|| 
|---------|-----0-3-1-0-|-1-0-1-3---1---|-----3-1-0---|----o|| 
|-1-------|-2-1---------|---------------|-----------5-|-----|| 
|---2-3-2-|---2---------|-----2-----2---|-----2-------|-7---|| 
|---------|-------------|-0-------0-----|-3-0---------|-0--o|| 
|-0---4---|-0-----4-0---|---------------|---------0---|-----|| 
  Q   Q     E E   E E     E   E   E E     E E E   E     Q 
	  

Search Paypal
auto scroll beats size up size down change color hide chords drawings
tab show chords e-chords YouTube Clip e-chords hide all tabs e-chords go to top tab