Johann Sebastian Bach

home > Johann Sebastian B...

Prelude From Cello Suite No 2 In Dm Bwv 1008 Tab

Johann Sebastian Bach

Difficulty: ExpertExpert

by alexribeiro

tuner correct add songbook print version text version save to e-mail
chordsukulelecavacokeyboardtabbassdrumsharmonicsflute Guitar Pro
chords

Prelude From Cello Suite No 2 In Dm Bwv 1008

  		(3/4) 

 |       |       |        |       |       |        |       |       | 
|--------0---------------|------0-----------------|------4-7-------0-------| 
|----1-------------1-0---|--0-3---6---------5-3---|0-3-6---------6---3-1-0-| 
|2---------------------2-|1---------------------5-|------------------------| 
|------------------------|------------------------|------------------------| 
|0-----------------------|------------------------|------------------------| 
|------------------------|0-----------------------|4-----------------------| 

 |       |       |        |       |       |        |       |       | 
|----0-------------------|------0-5-----3---------|------5-3---------------| 
|1-3---1-----------------|----1-----------6-5-3-1-|0-3-6-----5-6-3-1-0-3---| 
|--------2---0-----------|--2---------------------|------------------------| 
|----------------3---2---|3-----------------------|----------------------3-| 
|0-----------------------|0-----------------------|0-----------------------| 
|------------------------|------------------------|------------------------| 

 |       |       |        |       |       |        |       |       | 
|--------3-----1-0-------|----0-3-1---0-------0---|--------1-----0---------| 
|----0-3-----------3-1-0-|--1-------3---1-0-1---1-|------1---------3-1-0-3-| 
|--0---------------------|2-----------------------|----2-------------------| 
|2-----------------------|------------------------|0-3---------------------| 
|------------------------|0-----------------------|0-----------------------| 
|3-----------------------|------------------------|------------------------| 

 |       |       |        |       |       |        |       |       | 
|--------3-0-------0-----|----------1-0-3-1---5---|------------------------| 
|----0-3-----0-3-1-------|--------3---------3---1-|0-----0-3---0-------0---| 
|--0-----------------2-3-|2-----2-----------------|----0-----2---0---------| 
|2-----------------------|--2-3-------------------|--4-------------3-0---3-| 
|------------------------|------------------------|----------------2-------| 
|3---------------0-------|1-----------------------|3-----------------------| 

 |       |       |        |       |       |        |       |       | 
|------------------------|------------------------|------------------------| 
|------------------------|----------------2-------|------------------------| 
|--------0---------------|------0---0-------3-2-0-|--------2---------0-----| 
|----2-------------3-2-0-|--2-3-------3-2---------|3-2-0-3-------------3-2-| 
|3-----------------------|4-------0---------------|5-----------------------| 
|------------------------|------------------------|------------------------| 

 |       |       |        |       |       |        |       |       | 
|------------------------|----------------0-------|------2-5-----3-2-0---0-| 
|----------------4-------|--------1-0-1-4---1-----|----4---------------4---| 
|----0-2---2-0-----5-4-2-|0-----0-------------2-0-|--2---------------------| 
|--4-----------4---------|--4-2-------------------|4-----------------------| 
|6-------2---------------|------------------------|0-----------------------| 
|------------------------|0-----------------------|------------------------| 

 |       |       |        |       |       |        |       |       | 
|----0-3-7-----3-2-0---0-|----0-5-8-----7-5-3-2-5-|--5-3-2-0-3-2-0---2-0---| 
|--0-----------------4---|--1---------------------|0---------------------4-| 
|0-----------------------|2-----------------------|----------------2-------| 
|------------------------|------------------------|------------------------| 
|------------------------|0-----------------------|0-----------------------| 
|3-----------------------|------------------------|--------3-------1-------| 

 |       |       |        |       |       |        |       |       | 
|--0---------------------|------------------------|--------0-2-3-0---------| 
|----3-1---3-1-0---1-0---|----0---7---0-----------|------0---------0-------| 
|0-------1-------2-----2-|--2---5---5---2---2-0---|----0-------------0-----| 
|------------------------|1---------------1-----4-|--4-----------------2-0-| 
|------------------------|------------------------|7-----------------------| 
|0---------------2-------|------------------------|------------------------| 

 |       |       |        |       |       |        |       |       | 
|----------------------0-|------------------------|------------0-1---1-0---| 
|------------------------|------------1-3---3-1---|------1---3-----------3-| 
|----0-2-3-----2-0---0---|------2---3-----------3-|2-0-2-----------1-------| 
|--2---------------3-----|3-2-3---0-------2-------|--------3---------------| 
|4-----------------------|------------------------|------------------------| 
|------------------------|------------------------|------------------------| 

 |       |       |        |       |       |        |       |       | 
|------0---1-3-5---5-3-1-|0---0-----5-7-8---8-7-5-|4---------------4-------| 
|1-0-1-------------------|--3---8-----------------|------0---0---3---6-5-3-| 
|--------2-------4-------|--------5-------7-------|--7-5-------5-----------| 
|------------------------|------------------------|------------------------| 
|------------------------|------------------------|------------------------| 
|------------------------|------------------------|--------0---------------| 

 |       |       |        |       |       |        |       |       | 
|------4-5-------0-------|------------------------|--------0---------------| 
|1-3-5-----5-3-1---------|4---0-1---1-0---4-1-0---|------0---0---0---3-1-0-| 
|------------------5-4-2-|--2-----------2-------2-|1---1-------1-----------| 
|------------------------|------------------------|--4-------------2-------| 
|0---------------0-------|0---------------2-------|------------------------| 
|------------------------|--------0---------------|0-----------------------| 

 |       |       |        |       |       |        |       |       | 
|------0-5-0---0---3-1-0-|------4-7---------------|--0---7-8---------3-1-0-| 
|1-0-1-------1-----------|3-1-3-----9---9---3-1-0-|----10----105-1---------| 
|----------------2-------|------------7-----------|2---------------2-------| 
|------------------------|----------------2-------|------------------------| 
|0-----------------------|------------------------|0-----------------------| 
|------------------------|0-----------------------|------------------------| 

 |       |       |        |       |       |        |       |       | 
|--0-1---------0-----6---|----0-----------0---5---|------------------------| 
|3---------1-3---6-------|1-3-------0-1-3---1---1-|0-1-3-----------0---3---| 
|------2-3---------7---7-|------1-2---------------|------------1-2---------| 
|------------------------|------------------------|------3-2-4-------3---3-| 
|1---------------1-------|0---------------0-------|------------------------| 
|------------------------|------------------------|0---------------0-------| 

 |       |       |        |       |       |        |       |       | 
|------------------1-0---|------------0---5-------|--------5---------8-7-5-| 
|--------3-------------3-|1-0---0-1-----1---5-----|----1-------------------| 
|------------------------|----2-----2---------5---|------------------------| 
|----2-------------------|----------------------7-|1-----------------------| 
|------------------------|------------------------|------------------------| 
|4-----------------------|------------------------|------------------------| 

 |       |       |        |       |       |        |       |       | 
|4---0---4---5---7---8---|10------0---7-8-108-107-|8---4-5-0-----7-8-7-8-5-| 
|--7---7---5---5---5---5-|--129-12--9-------------|--10------9-10----------| 
|------------------------|------------------------|------------------------| 
|------------------------|------------------------|------------------------| 
|0-----------------------|------------------------|------------------------| 
|------------------------|0-----------------------|0-----------------------| 

 |       |       |        |       |       |        |       |       | 
|7-------0---4-5-7-5-7-4-|5---0-2-------4-5-4-5---|4-----------------------| 
|--9-7-9---7-------------|--7-------4-7---------7-|0-----------------------| 
|------------------------|--------5---------------|------------------------| 
|------------------------|------------------------|0-----------------------| 
|------------------------|------------------------|------------------------| 
|0-----------------------|0-----------------------|------------------------| 

 |       |       |        |       |       |        |       |       | 
|1-------------------1---|------0---------------7-|--5-----0---------------| 
|--3-2-3---3---3---3-----|--0-3---6-----5---------|----6-----1-0-3-1-------| 
|--------3---2---3-----2-|1---------------7-6-7---|5-----7-----------2-1-4-| 
|0-----------------------|------------------------|------------------------| 
|----------------1-------|2-----------------------|0-----------------------| 
|------------------------|------------------------|------------------------| 

 |       |       |        |       |       |        |       |       | 
|------------------------|------------------------|------------------------| 
|------------------------|------------------------|3-----1-0---------------| 
|2-----------0-3-2-0-----|------------------------|----------2-1-----------| 
|--3-2-0---2-------------|--0---0---0---0---0-3---|3-------------4-2-0-----| 
|--------4-----------8-7-|8-----------0-----------|--------------------3-2-| 
|------------------------|----9---6-------6-----5-|4-----------------------| 

 |       |       |        |       |       |        |       |       | 
|------------------------|------------------------|--------0-----0-5---3---| 
|------0-1-0-------------|------0-3-1-0-----------|------1-----1-----6---5-| 
|----2-------2-0---------|----1---------2-1-------|----2-----2-------------| 
|--2-------------3-2-0---|--2---------------4-2-0-|--2---------------------| 
|0---------------------3-|2-----------------------|3-----------------------| 
|------------------------|------------------------|------------------------| 

 |       |       |        |       |       |        |       |       | 
|------0-1-------6---5---|4-----------------------|5-----------------------| 
|----3-----3-2-3---3---3-|3-----------------------|1-----------------------| 
|--2---------------------|------------------------|------------------------| 
|0-----------------------|2-----------------------|2-----------------------| 
|------------------------|------------------------|------------------------| 
|------------------------|0-----------------------|0-----------------------| 

 |       |       |        |       |       |        |       |       | 
|5-----------------------|4-----------------------|5----------------------|| 
|0-----------------------|0-----------------------|5----------------------|| 
|------------------------|------------------------|5----------------------|| 
|2-----------------------|2-----------------------|7----------------------|| 
|------------------------|------------------------|7----------------------|| 
|0-----------------------|0-----------------------|5----------------------|| 
	  

Search Paypal
auto scroll beats size up size down change color hide chords drawings
tab show chords e-chords YouTube Clip e-chords hide all tabs e-chords go to top tab