Johann Sebastian Bach

home > Johann Sebastian B...

Koncert Bwv 1059 Adagio Tab

Johann Sebastian Bach

Difficulty: nolevelnolevel

by abelamin

tuner correct add songbook print version text version save to e-mail
chordsukulelecavacokeyboardtabbassdrumsharmonicsflute Guitar Pro
chords

Koncert Bwv 1059 Adagio

  		




E|------------------------------------------13--10------15--12------------------------ 
B|--10--10--11--13----------10--11--13--------------11----------13p11h13p11h13p11h13-- 
G|------------------12--12--------------10-------------------------------------------- 
D|------------------------------------------------------------------------------------ 
A|------------------------------------------------------------------------------------ 
E|------------------------------------------------------------------------------------ 

E|-------------------------- 
B|--10--11--11--10---------- 
G|------------------12--10-- 
D|-------------------------- 
A|-------------------------- 
E|-------------------------- 



E|--13--10--12--13---------10--13--12--12-------------------------12--10-- 
B|------------------8--12------------------13--10--8----------12---------- 
G|----------------------------------------------------10--10-------------- 
D|------------------------------------------------------------------------ 
A|------------------------------------------------------------------------ 
E|------------------------------------------------------------------------ 



E|----------10---------------------------------------10--12--13--15--17--------------------------- 
B|--12--13------13--10-------------12--13--13p12h13----------------------12h13--12h13--12h13--13-- 
G|----------------------12--9--12----------------------------------------------------------------- 
D|------------------------------------------------------------------------------------------------ 
A|------------------------------------------------------------------------------------------------ 
E|------------------------------------------------------------------------------------------------ 



E|--11---------------------------------------------------------11--15--18-- 
B|------13--10-------------------------------------11--13--15-------------- 
G|--------------12--12p11h12p11h12--9--11--12--14-------------------------- 
D|------------------------------------------------------------------------- 
A|------------------------------------------------------------------------- 
E|------------------------------------------------------------------------- 



E|------------------------18--17--18--17--15--17--14--15--15--13--11--10-------------- 
B|--13--11h13p11--10------------------------------------------------------13--11--10-- 
G|--------------------12-------------------------------------------------------------- 
D|------------------------------------------------------------------------------------ 
A|------------------------------------------------------------------------------------ 
E|------------------------------------------------------------------------------------ 



E|--14--15--17h18--17h18--17h18--15--15-- 
B|--------------------------------------- 
G|--------------------------------------- 
D|--------------------------------------- 
A|--------------------------------------- 
E|--------------------------------------- 


E|-----------------------------------------10--11--13--11h13p11--10--11--11h13--11h13--10-- 
B|--11--10--8--11--10----------10--11--13-------------------------------------------------- 
G|---------------------10--12-------------------------------------------------------------- 
D|----------------------------------------------------------------------------------------- 
A|----------------------------------------------------------------------------------------- 
E|----------------------------------------------------------------------------------------- 


E|----------------------------------------------------------------------15------------------ 
B|------10--11----------------------------------10------10--11--10--11------11--10--11------ 
G|--12----------9--7--9--10--9--10--12--10--12------12----------------------------------12-- 
D|------------------------------------------------------------------------------------------ 
A|------------------------------------------------------------------------------------------ 
E|------------------------------------------------------------------------------------------ 



E|----------13--10----------12--13------------------- 
B|--10--13----------13--11----------10h11--10h11--8-- 
G|--------------------------------------------------- 
D|--------------------------------------------------- 
A|--------------------------------------------------- 
E|--------------------------------------------------- 


E|--------------------------------------------------------13--10------15--12-------------------- 
B|--10--8--10--10--11--13--15--10--8------10--11--13--------------11----------13--11h13--11h13-- 
G|------------------------------------12--------------10---------------------------------------- 
D|---------------------------------------------------------------------------------------------- 
A|---------------------------------------------------------------------------------------------- 
E|---------------------------------------------------------------------------------------------- 



E|----------------------------------------------------------------------------------------------------- 
B|--11h13--10--11--10--13--10-------------------------------------------------------------------------- 
G|-----------------------------10--8h10--8h10--8h10--7--8--7--9--9--10--9--10--9--7--9h10--9h10--9h10-- 
D|----------------------------------------------------------------------------------------------------- 
A|----------------------------------------------------------------------------------------------------- 
E|----------------------------------------------------------------------------------------------------- 



E|---------------------10--------------13--10---------------------------- 
B|-----------------10------12--12--13----------10--10--11------------10-- 
G|--9--10--10----------------------------------------------9--10/12------ 
D|----------------------------------------------------------------------- 
A|----------------------------------------------------------------------- 
E|----------------------------------------------------------------------- 

Stave 14: 

E|--10--9--10-------------------------------------------- 
B|-------------10--8--8h10--8h10--8h10--8h10--8--10--10-- 
G|------------------------------------------------------- 
D|------------------------------------------------------- 
A|------------------------------------------------------- 
E|------------------------------------------------------- 
	  

Search Paypal
auto scroll beats size up size down change color hide chords drawings
tab show chords e-chords YouTube Clip e-chords hide all tabs e-chords go to top tab