Buckethead

Soothsayer

Buckethead

tabs Expert expert

by  JOSE25

save to print version add songbook text version e-mail correct tuner
chordsukulelecavacokeyboardtabbassdrumsharmonicaflute Guitar Pro
close

there isn't a video lesson for this song

chords

Soothsayer

	  		Buckethead 
Soothsayer 
Standar Tunning 


|------6-8/9-8-6-4/6-4---4------------| 
|-----------------------4-4/7-6-7-6/4-| 
|----10-------------------------------| 
|--8----------------------------------| 
|-------------------------------------| 
|-------------------------------------| 


|------6-8/9-8-6-4/6-4---4------------| 
|-----------------------4-4-6---------| 
|----10---------------------6---------| 
|--8----------------------------------| 
|-------------------------------------| 
|-------------------------------------| 


|-------------------------------------| 
|-------------------------------------| 
|--------------13/11------------------| 
|-8-8---11-11--13/11------------------| 
|-8-8---11-11--11/9-------------------| 
|-6-6---9--9--------------------------| 
(sometimes it goes without the 11-13-13) 

|-------------------------------------| 
|-------------------------------------| 
|-------------------------------------| 
|-8-8---11-11---4---------------------| 
|-8-8---11-11---4---------------------| 
|-6-6---9--9----2---------------------| 

|-------------------------------------| 
|-------------------------------------| 
|-------------------------------------| 
|---------------6---------------------| 
|------------6-8--9-8-6---------------| 
|--2-4-6-8-9------------9-8-6---------| 




[email protected] for anything 
Enjoy ;). 

		  

See also:

tabs Shiny Toy Guns - When Did This Storm Begin tabs Celldweller - The Wings Of Icarus tabs Peaches - Sucker tabs Buckethead - Four Rivers tabs Shiny Toy Guns - Ricoche tabs To Mars and Back Again - Follow the yellow brick road
e-chords

Other versions:

tabs Buckethead - Soothsayer tabs Buckethead - Soothsayer (solo)
auto scroll beats size up size down change color hide chords drawings
tab show chords e-chords YouTube Clip e-chords hide all tabs e-chords go to top tab

share