Buckethead

home > Buckethead

Squaring Of The Circle Tab

Buckethead

Difficulty: nolevelnolevel

by adalgomes

tuner correct add songbook print version text version save to e-mail
chordsukulelecavacokeyboardtabbassdrumsharmonicsflute Guitar Pro
chords

Squaring Of The Circle

	  
Intro   Clean with delay 
e|-----------------------|----------------------|----------------------|-----------------------| 
B|--12h13---13p12--------|-12h13---13p12--------|-12h13---13p12--------|-12h13--12-------------| 
G|----------------14-----|----------------------|---------------14-----|------------14p12------| 
D|-----------------------|---------------14-----|----------------------|------------------14---| 
A|--10(10)--12-----------|-10(10)--12-----------|-10(10)--12-----------|-10(10)----------------| 
E|-----------------------|----------------------|----------------------|------------12---------| 

(lead electric) 
e|------------------------------------------------|---------------15----------17/19-19--hbr-19hbr-17-17-| 
B|--g15h17~~~~---15h17-17--15h17p15---------------|(h15/17)-17~~-----15-15------------------------------| 
G|---------------------------------17--\16---14---|-----------------------------------------------------| 
D|------------------------------------------------|-----------------------------------------------------| 
A|------------------------------------------------|-----------------------------------------------------| 
E|------------------------------------------------|-----------------------------------------------------| 

e|-----15--15--15h17---15-------------------------------------------------| 
B|--17-------------------17--17--15-13h15-15/17---------------------------| 
G|---------------------------------------------17\16-16--h17-16-----------| 
D|----------------------------------------------------------------17---14-| 
A|------------------------------------------------------------------------| 
E|------------------------------------------------------------------------| 

e|--------------------------------------------------------------------| 
B|--------------------------------------------------------------------| 
G|-g12h14~--12--------------------------------------------------------| 
D|---------------g14\12---10h12/14---14h15p14-14--14h15p14-14~~~------| 
A|--------------------------------------------------------------------| 
E|--------------------------------------------------------------------| 

 Verse  Clean with delay 
   00:34   Lightly mute this entire section 
e|------------------------|-------------------------|-----------------------|------------------------| 
B|------------------------|-------------------------|-----------------------|------------------------| 
G|------------------------|-------------------------|-----------------------|------------------------| 
D|------------------------|-------------------------|-----------------------|------------------------| 
A|-12-12-15-15-14-14-14---|------14(14)15(15)-17-17/|19-19-19-19-19-19-19-19|19-19-19-19-19-19-19-19-| 
E|----------------------15|15-15--------------------|-----------------------|------------------------| 

e|------------------------|-----------------------|-----------------------|-----------------------| 
B|------------------------|-----------------------|-----------------------|-----------------------| 
G|------------------------|-----------------------|---------16(16)16-17-17|17-17-16-16-14-14------| 
D|------------------------|------------------17-17|17-17-17---------------|-----------------14-14-| 
A|-12-12-15-15-14-14-14-14|------14-14-15-15------|-----------------------|-----------------------| 
E|------------------------|15-15------------------|-----------------------|-----------------------| 
                                                                 
e|------------------------|-----------------------|-----------------------|------------------------| 
B|------------------------|-----------------------|-----------------------|------------------------| 
G|-12-12-12---------------|-----------------------|-----------------------|------------------------| 
D|----------12-12-12-14-14|14---------------------|-----------------------|------------------------| 
A|------------------------|---15-15-15-17-17-14-14|15-15-15-15-15-15-15-15|14-14-12-12-10-10-12-12-| 
E|------------------------|-----------------------|-----------------------|------------------------| 

e|------------------------|--------------------|---------------------------------| 
B|------------------------|--------------------|---------------------------------| 
G|------------------------|--------------------|---------------------------------| play last note 
D|------------------------|--------------------|---------------------------------| unmuted and let 
A|-12-12-12---------------|--------------------|---------------------------------| it ring... 
E|----------12-12-12-10-10|10-8-8-8-10-10-12-12|12-12-12-12-12-12-12-12-12~~-----| 

 Chorus lead  Electric 
   00:57 
e|-----------------------------------------------------------------| 
B|--------------------------------12--13---------------------------| 
G|-----------------------------------------12--12-12~---12---------| 
D|-10~----10h12p10-9--/10--12/14--------------------------14\12p10-| 
A|-----------------------------------------------------------------| 
E|-----------------------------------------------------------------| 

e|---------------------------------------------------------| 
B|---------------------------------------------------------| 
G|------------------------12----12~-12~-12~----//-\\-//----| 
D|-10~----10h12p10-9-/10-----------------------------------| 
A|---------------------------------------------------------| 
E|---------------------------------------------------------| 

e|-20~-20~---19h20p19-19-----------------------------------------------| 
B|-----------------------17~-17~~---17-17~~--17~\15-15~-15~-15/17~-17~-| 
G|---------------------------------------------------------------------| 
D|---------------------------------------------------------------------| 
A|---------------------------------------------------------------------| 
E|---------------------------------------------------------------------| 

e|--------------------------------------------------------------------| 
B|--------------------------------------------------------------------| 
G|-17~~~-17-17~-(\16)-16--16-16~---16\14-14~~--14~~--14~~--14~~--\\---| 
D|--------------------------------------------------------------------| 
A|--------------------------------------------------------------------| 
E|--------------------------------------------------------------------| 

01:19 
e|-20-20-20-20-20-20-20-20-20-20-20-20-20-20-20-20-20-20-20-20-20-20-20-20~~~-| 
B|----------------------------------------------------------------------------| 
G|----------------------------------------------------------------------------| 
D|----------------------------------------------------------------------------| 
A|----------------------------------------------------------------------------| 
E|----------------------------------------------------------------------------| 

e|-20fbr-20-19h20p19-17-19h20p19-17--17h20p17-19h20p19p17--------------------| 
B|---------------------------------20--------------------20-17-20fbr--17-17--| 
G|---------------------------------------------------------------------------| 
D|---------------------------------------------------------------------------| 
A|---------------------------------------------------------------------------| 
E|---------------------------------------------------------------------------| 

e|----------------------------------------------------------------------------| 
B|-17-17-17hbrp15---------------15-17-15hbr-17-17-17-17-17h18p17p15--15-18-15-| 
G|---------------18-17-15-17-18------------------------------------18---------| 
D|----------------------------------------------------------------------------| 
A|----------------------------------------------------------------------------| 
E|----------------------------------------------------------------------------| 

e|-------------------------------------------------------------------| 
B|-17-18-17p18-------------------------------------------------------| 
G|------------h18-18-17-18-17p15--15-18-15-17-18-17-15---------------| 
D|------------------------------18--------------------18-16-16-18-18-| 
A|-------------------------------------------------------------------| 
E|-------------------------------------------------------------------| 

e|---------------------------------------------------------------------------| 
B|---------------------------------------------------------------------------| 
G|-----------------(to be filled-in shortly)---------------------------------| 
D|---------------------------------------------------------------------------| 
A|---------------------------------------------------------------------------| 
E|---------------------------------------------------------------------------| 

e|-22fb-22-20-19hb-19-17~~--17--15h17p15------| 
B|--------------------------------------h17~--| 
G|--------------------------------------------| 
D|--------------------------------------------| 
A|--------------------------------------------| 
E|--------------------------------------------| 

e|-15---------------------------------------------------------------------| 
B|-----15---13-12-13-12---------------------------------------------------| 
G|----------------------12-------12-----------12--------------------------| 
D|-------------------------12h14---g14\12--10-12-10-9h10p9----------------| 
A|---------------------------------------------------------12~-------12~--| 
E|--------------------------------------------------------------12~-------| 

                                         ( hold bend while hitting killswitch ) 
e|----------------------------------------15--15--15---------------------------| 
B|------------13-13-13-13-13--15-15-15fb--15~~15~~16~~-K-K-K-K-K-K--K--K----K--| 
G|----12-12--------------------------------------------------------------------| 
D|-14--------------------------------------------------------------------------| 
A|-----------------------------------------------------------------------------| 
E|-----------------------------------------------------------------------------| 

e|-15--------------------15-----\\------| 
B|-15fb~~~-K-K-K-K-K-K~~~--------\\-----| 
G|--------------------------------------| 
D|--------------------------------------| 
A|--------------------------------------| 
E|--------------------------------------| 

01:48 
e|------------------------------------------------------------------------| 
B|-12--h13--13---12---------------------------------12-13h15-15/17---17~--| 
G|------------------14------------------------12-14-----------------------| 
D|---------------------12/14-14---14~------14-----------------------------| 
A|------------------------------------------------------------------------| 
E|------------------------------------------------------------------------| 

e|------------------------------------------------------| 
B|-15--13\12-12h13-13---g13h15/17--17~~-17~~~---\\------| 
G|--------------------14--------------------------------| 
D|------------------------------------------------------| 
A|------------------------------------------------------| 
E|------------------------------------------------------| 

eb|-22fb--22~----22fb-22-22-22-20-19-pbr19----17~-17~-g17\--------------| 
Bb|---------------------------------------------------------------13-15-| 
Gb|---------------------------------------------------------12/14-------| 
Db|---------------------------------------------------------------------| 
Ab|---------------------------------------------------------------------| 
Eb|---------------------------------------------------------------------| 

eb|---------15-----------------------------------------------------------| 
Bb|-15fb(hold)15rb----pbr15p13---13\12h13p12-----------------------------| 
Gb|---------------------------14------------h14-14~~-14~~-14~~--\\-//-\\-| 
Db|----------------------------------------------------------------------| 
Ab|----------------------------------------------------------------------| 
Eb|----------------------------------------------------------------------| 

02:10 
e|--------------------------------------------|--------------------------------------------| 
B|--------------------------------------------|--------------------------------------------| 
G|--------------------7-----------------------|--------------------7-----------------------| 
D|--------------------------------------------|--------------------------------------------| 
A|-7----7----------7--------------------------|-7----7----------7-------------h10----------| 
E|-5----5---5h7/8-------7------g7h8-7---7h8-7-|-5----5---5h7/8-------7------g7h8--7---h8p7-| 

e|--------------------------------------------|--------------------------------------------| 
B|--------------------------------------------|--------------------------------------------| 
G|--------------------7-----------------------|--------------------7-----------------------| 
D|--------------------------------------------|--------------------------------------------| 
A|-7----7----------7--------------------------|-7----7----------7------------10------X-15\-| 
E|-5----5---5h7/8-------7-----7-g7h8--g7h8--7-|-5----5---5h7/8-------7-------8-------X-15\-| 

e|----------------|----------------|----------------|----------------| 
B|----------------|----------------|----------------|----------------| 
G|----------------|----------------|----------------|----------------| 
D|----------------|----------------|----------------|----------------| 
A|-----------5---7|7-----5---------|-----------5---5|7---8---7~~-----| 
E|-5-8-8-5-8---5--|--5-8---8-7~~---|-5-8-8-5-8---5--|--5---5---------| 
 PM-------------------------|      PM-----------------------| 

e|----------------|----------------|----------------|----------------| 
B|----------------|----------------|----------------|----------------| 
G|----------------|----------------|----------------|----------------| 
D|----------------|----------------|----------------|----5-----------| 
A|-----------5---7|7-----5---------|-----------5---5|7-------8-7~~---| 
E|-5-8-8-5-8---5--|--5-8---8-7~~---|-5-8-8-5-8---5--|--5-------------| 
 PM-------------------------|      PM-------------------| 

e|----------------|----------------|----------------|----------------| 
B|----------------|----------------|----------------|----------------| 
G|----------------|----------------|----------------|----------------| 
D|----------------|----------------|----------------|----------------| 
A|-----------5----|----------------|-----------5---5|7---8---7~~-----| 
E|-5-8-8-5-8---5-8|8-5-7-8-7-3~~---|-5-8-8-5-8---5--|--5---5---------| 
 PM-------------------------|      PM-----------------------| 

e|----------------|----------------|---------------------------------| 
B|----------------|----------------|---------------------------------| 
G|----------------|----------------|-------------------5-5-4~--------| 
D|----------------|----------------|-3--3--3-3---5-5-----------------| 
A|-----------5----|----------------|---------------------------------| 
E|-5-8-8-5-8---5-7|8-5-7-5-8p7-3~~-|--1--1----1/3-3-3----------------| 
 PM-----------------------|        PM----------------| 

02:55 
e|--------------------------------------------------------| 
B|-13~~----13h15p13\12--12--12-\8--8h10~--10--8\3---------| 
G|------------------------------------------------5-2~-p0-| 
D|--------------------------------------------------------| 
A|--------------------------------------------------------| 
E|--------------------------------------------------------| 

e|----------------------------------------19-20-19-----------------------| 
B|-13~~--13-13--13h15p13-12--13--15/17-17----------20~-------------------| 
G|------------------------------------------------------19\17--16---17---| 
D|-----------------------------------------------------------------------| 
A|-----------------------------------------------------------------------| 
E|-----------------------------------------------------------------------| 

                                       ( hold ) 
e|--------------------------------19-19hb----19-19hbr------------| 
B|-20fb-20--20--20~~---20--20--22---------------------20---------| 
G|---------------------------------------------------------17~---| 
D|---------------------------------------------------------------| 
A|---------------------------------------------------------------| 
E|---------------------------------------------------------------| 

e|---------------------------------------------------------------| 
B|---------------------------------------------------------------| 
G|-19-17-19-19/21~~~~21~~~~21~21~21~21~21~~~~21~~~~21~~~~21-\----| 
D|---------------------------------------------------------------| 
A|---------------------------------------------------------------| 
E|---------------------------------------------------------------| 

03:18 
e|-------------------|-------------------|-------------------|------------------------| 
B|-------------------|-------------------|-------------------|------------------------| 
G|-------------------|-------------------|-------------------|------------------------| 
D|-------------------|-------------------|-------------------|------------------------| 
A|-------------------|-------------------|-------------------|------------------------| 
E|-5---5\1---3--/8p7-|-5---5\1---3--/8p7-|-5---5\1---3--/8p7-|-5---5-5-5-5--5-5-//-\\-| 


  Lightly mute this entire section 
e|------------------------|-------------------------|-----------------------|------------------------| 
B|------------------------|-------------------------|-----------------------|------------------------| 
G|------------------------|-------------------------|-----------------------|------------------------| 
D|------------------------|-------------------------|-----------------------|------------------------| 
A|-12-12-15-15-14-14-14---|------14(14)15(15)-17-17/|19-19-19-19-19-19-19-19|19-19-19-19-19-19-19-19-| 
E|----------------------15|15-15--------------------|-----------------------|------------------------| 

e|------------------------|-----------------------|-----------------------|-----------------------| 
B|------------------------|-----------------------|-----------------------|-----------------------| 
G|------------------------|-----------------------|---------16(16)16-17-17|17-17-16-16-14-14------| 
D|------------------------|------------------17-17|17-17-17---------------|-----------------14-14-| 
A|-12-12-15-15-14-14-14-14|------14-14-15-15------|-----------------------|-----------------------| 
E|------------------------|15-15------------------|-----------------------|-----------------------| 
                                                                 
e|------------------------|-----------------------|-----------------------|------------------------| 
B|------------------------|-----------------------|-----------------------|------------------------| 
G|-12-12-12---------------|-----------------------|-----------------------|------------------------| 
D|----------12-12-12-14-14|14---------------------|-----------------------|------------------------| 
A|------------------------|---15-15-15-17-17-14-14|15-15-15-15-15-15-15-15|14-14-12-12-10-10-12-12-| 
E|------------------------|-----------------------|-----------------------|------------------------| 

e|------------------------|--------------------|-----------------------------------------| 
B|------------------------|--------------------|-----------------------------------------| 
G|------------------------|--------------------|-----------------------------------------| play last note 
D|------------------------|--------------------|-----------------------------------------| unmuted 
A|-12-12-12---------------|--------------------|-----------------------------------------|  
E|----------12-12-12-10-10|10-8-8-8-10-10-12-12|12-12-12-12-12-12-12-12-12~~-/-\-//-\\---| 

03:52 
e|---------------------------------------------|---------------------------------------------| 
B|---------------------------------------------|---------------------------------------------| 
G|-14h17p14---14h17p14---14h17p14---14h17p14---|-12h16p12---12h16p12---12h16p12---12h16p12---| 
D|---------14---------14---------14---------14-|---------14---------14---------14---------14-| 
A|---------------------------------------------|---------------------------------------------| 
E|---------------------------------------------|---------------------------------------------| 

e|----------------------------------------------------------------------------------------| 
B|----------------------------------------------------------------------------------------| 
G|---14---------14---------14---------14---------14---------14---------14---------14------| 
D|-15--15p14--15--15p14--15--15p14--15--15p14--15--15p14--15--15p14--15--15p14--15--15p14-| 
A|----------------------------------------------------------------------------------------| 
E|----------------------------------------------------------------------------------------| 

e|---------------------------------------------|---------------------------------------------| 
B|---------------------------------------------|---------------------------------------------| 
G|-14h17p14---14h17p14---14h17p14---14h17p14---|-12h16p12---12h16p12---12h16p12---12h16p12---| 
D|---------14---------14---------14---------14-|---------14---------14---------14---------14-| 
A|---------------------------------------------|---------------------------------------------| 
E|---------------------------------------------|---------------------------------------------| 

e|------------------------------------------------------------------------| 
B|---17--------17--------17--------17--------17--------17-----------------| 
G|-17--17----17--17----17--17----17--17----17--17----17--17------\\--\\---| 
D|-------14--------14--------14--------14--------14--------14----\\--\\---| 
A|------------------------------------------------------------------------| 
E|------------------------------------------------------------------------| 

04:03 
e|--------------------------------------|---------------------------------| 
B|--------------------------------------|---------------------------------| 
G|--------------------------------------|---------------------------------| 
D|-10------10---10-g12hbr--10h12/14-10--|-10~-----------------------------| 
A|---12~-----h12------------------------|-------12p10---10----------------| 
E|--------------------------------------|------------h12--12-10-8~--/-\\--| 
  
                                                                   (  hold   the   bend  ) 
e|---------------------------------15--------------------15-----15fb--15-15-15----15---15----| 
B|-15-fb-----15fb---15fb~~~~rb--17---15fb----------15fb(hold)rb------------------------------| 
G|----------------------------------------17-14--17------------------------------------------| 
D|-------------------------------------------------------------------------------------------| 
A|-------------------------------------------------------------------------------------------| 
E|-------------------------------------------------------------------------------------------| 

 Interlude  
  04:15   Clean with delay 
e|-------------------------------------------------------| 
B|-------------------------------------------------------| 
G|--------(7)--------7/9---9--9---12--12-12--12-9---9----| 
D|-10------9---------9/10--10-10--14--14-14--14-10--10---| 
A|-12------10--------------------------------------------| 
E|-------------------------------------------------------| 

e|---------------------------------------------------------------------| 
B|------------------------------------------------12-------------------| 
G|---------------------------------------------------------------------| 
D|-10--10--10--10/12---------9--9---9-/10--10--10-10--9--10--10-9--10--| 
A|-12--12--12--12-14---------10-10--10/12--12--12-12--12-12--12-12-12--| 
E|---------------------------------------------------------------------| 

e|----------------------------------------------------| 
B|----------------------------------------------------| 
G|-----------------------------------(9)(12)---(12)---| 
D|-10------10/12---12--12--12\10--10--------10--------| 
A|-12------12/14---14--14--14\12--12--------12--------| 
E|----------------------------------------------------|       distortion 
                                                                slides 
e|--------------------------------------------------------| |------------| 
B|--------------------------------------------------------| |------------| 
G|--------------------------------------------------------| |------------| 
D|-12--12--12h14-12-10--10-9----9-/10-10\9--9-------------| |--\\-//-\\--| 
A|------------------12--12-10---10/12-12\10---10--10/12---| |--\\-//-\\--| 
E|--------------------------------------------------------| |------------| 

04:37 
e|--------------------------------------------------------------------| 
B|--------------------------------------------------------------------| 
G|-----------------------------------------------------------12-12-12-| 
D|-12fb~~~---12~~~12~---rb--10-12p10--10~~--12b-10~~---12/14----------| 
A|----------------------------------12--------------------------------| 
E|--------------------------------------------------------------------| 

                                ( hold the bend ) 
e|------------------------------v---------------v---| 
B|--------------------------------------------------| 
G|-14~---12-----------------------------------------| 
D|---------g14\12--10-----10-12fb-----12-b-b---12---| 
A|----------------------12--------------------------| 
E|--------------------------------------------------| 

           (hold bend) 
e|-----------------------------------------------------------------------------------| 
B|-------13fb-----13~~--13fb-13------------------------------------------------------| 
G|-14-14-----------------------14-12-14-12/14-14~---12fb-12------------12------------| 
D|----------------------------------------------------------14-12hbrp10--12b-12-10~--| 
A|-----------------------------------------------------------------------------------| 
E|-----------------------------------------------------------------------------------| 

e|--------------------------------------------------------------------------------| 
B|--------------------------------------------------------------------------------| 
G|----------------------------------12-12-12-12--K-K-K-K-K-K-K-K----//-\\-//-\\---| 
D|-10-------------------10~~--12fb(hold bend)-------------------------------------| 
A|----12-10----10-12-12-----------------------------------------------------------| 
E|----------12--------------------------------------------------------------------| 
                  *PM* 

05:00 
e|----------------------------------------------------------| 
B|-15sb----15fb--b-15fb-15fb-15fb-15fb-15fb-16fb-----13~~---| 
G|----------------------------------------------------------| 
D|----------------------------------------------------------| 
A|----------------------------------------------------------| 
E|----------------------------------------------------------| 

e|----------------------------------------------------15---------------------------17--15fb-| 
B|-------------------------------------------13-15fb----15fbrp13-15---13-15fb----17--17-----| 
G|-14p12---12-------------------12--14--12-14-----------------------14----------------------| 
D|------h14--12b-12-10--10-12/14--14--14----------------------------------------------------| 
A|--------------------12--------------------------------------------------------------------| 
E|------------------------------------------------------------------------------------------| 

   Holding  the  bend   from  the  previous  phrase 
e|-15~~-15~~-15~~-15~~-15~~-15~~-15~~-15~~-15~~-15~~-\----| 
B|--------------------------------------------------------| 
G|--------------------------------------------------------| 
D|--------------------------------------------------------| 
A|--------------------------------------------------------| 
E|--------------------------------------------------------| 

e|-21fb---21fb---21fbr-------------------------------------------------------------------| 
B|---------------------22-20-22-20fb--22-20------------20-----------------------------20-| 
G|------------------------------------------21-19fb-19---19fb-19p17---19--16/17-19--21---| 
D|------------------------------------------------hold-------------17---19---------------| 
A|---------------------------------------------------------------------------------------| 
E|---------------------------------------------------------------------------------------| 

05:22 
e|----------------------------------------------------| 
B|-20----20----20----20----20----20-------/-\-//-\\---| 
G|-19fb--19fb--19fb--19fb--19fb--19fb-----/-\-//-\\---| 
D|----------------------------------------------------| 
A|----------------------------------------------------| 
E|----------------------------------------------------| 

05:28 
e|---------------------------------------------------| 
B|---------------------------------------------------| 
G|------------------------------12-------------------| 
D|-7~~---/10-10~-----10-12fb------12-12-12rb-10------| 
A|----------------12-----------------------------12\-| 
E|-------------------------^-------------------------| 
                           (hold-the-bend) 

e|--------------------------------------------------------------------| 
B|-15b-15b---15b--15b--15b--15b-13------------------13b---------------| 
G|---------------------------------14-14~--14-p12h14-----14-----------| 
D|-----------------------------------------------------------12-------| 
A|---------------------------------------------------------------15~--| 
E|--------------------------------------------------------------------| 

e|---------------------------------------------------------| 
B|---------------------------------------------------------| 
G|-12------------------------------------------------------| 
D|-----12br--10~---------------------------------------7~~-| 
A|---------------h12p10---10-------------------------------| 
E|---------------------h12--12-10\8--10-11p10-8-10p8-5-----| 

05:45 
e|---------------------------------------------------------------------------| 
B|---------------------------------------------------------------------------| 
G|---------------------------14--12-----12---12---12---12---12---12---12-----| 
D|-10~--------------10h12/14---14--14-14--14---14---14---14---14---14---14---| 
A|------12p10---10-----------------------------------------------------------| 
E|-----------h12-------------------------------------------------------------| 

05:49 - 05:56 
e|---------------------------------------------------------------------------| 
B|---------------------------------------------------------------------------| 
G|-----I'm unable to decipher this section so please feel free to add--------| 
D|---------------------------------------------------------------------------| 
A|---------------------------------------------------------------------------| 
E|---------------------------------------------------------------------------| 

05:56                   
e|-------------------|      |-------------------|     e|--------15----15----15----15--------| 
B|-------------------|      |-------------------|     B|-13-15fb--15fb--15fb--15fb--15fbr\\-| 
G|-12-12-14-14-14-14-| then |-12-14-14-14-14-14-|x15  G|------------------------------------| 
D|-------------------|      |-------------------|     D|------------------------------------| 
A|-------------------|      |-------------------|     A|------------------------------------| 
E|-------------------|      |-------------------|     E|------------------------------------| 

     (hold the bend for all these notes) 
e|-22fb----22~~~~22~~~~22-22-22--22-22b--22--20--19--20--20~~--| 
B|-------------------------------------------------------------| 
G|-------------------------------------------------------------| 
D|-------------------------------------------------------------| 
A|-------------------------------------------------------------| 
E|-------------------------------------------------------------| 

e|-22-22-22fb--22fb--22--b-22fb--22--b-22fb--rb-b--22fb-22fb-22fb-22fb-22fb---------------| 
B|-------------------------------------------------------------------------22-22-22-22-20-| 
G|----------------------------------------------------------------------------------------| 
D|----------------------------------------------------------------------------------------| 
A|----------------------------------------------------------------------------------------| 
E|----------------------------------------------------------------------------------------| 

06:19 
e|-g19h20--17-17~--15-------------|-15-17-15-20---17-17--------------| 
B|-------------------g17\15-13~~--|----------------------------------| 
G|--------------------------------|----------------------g19\17-14~--| 
D|--------------------------------|----------------------------------| 
A|--------------------------------|----------------------------------| 
E|--------------------------------|----------------------------------| 

e|-15-15-17-15-20--17-20/22-22fb-22fb-22fb-22fb-22fb-22-20-----------------------------------| 
B|----------------------------------------------------------22p20-20---------20--------------| 
G|------------------------------------------------------------------19-17-19-19fb---19b-19b--| 
D|-------------------------------------------------------------------------------------------| 
A|-------------------------------------------------------------------------------------------| 
E|-------------------------------------------------------------------------------------------| 

06:30 - 06:41 
e|---------------------------------------------------------------------------| 
B|---------------------------------------------------------------------------| 
G|-----I'm unable to decipher this section so please feel free to add--------| 
D|---------------------------------------------------------------------------| 
A|---------------------------------------------------------------------------| 
E|---------------------------------------------------------------------------| 

06:41 
e|---------------------------------------------------------------------------| 
B|---------------------------------------------------------------------------| 
G|--------------------------slow-bend-here-----------------------------------| 
D|-10-----------------10-12-12-12-12-12-12-12fbr--fbr-fbr-fbr-fbr-fbr-10~~---| 
A|------12p10---10-10--------------------------------------------------------| 
E|-----------h12-------------------------------------------------------------| 
   PS              PM---------------------| 
                                        
e|---------------------------------------------------------------------------| 
B|-------------------13---13h15-15fb------15b-15b-15b-15b-15b-15b-15b--//-\\-| 
G|--------12-14-14~~----14---------------------------------------------------| 
D|-g12/14--------------------------------------------------------------------| 
A|---------------------------------------------------------------------------| 
E|---------------------------------------------------------------------------| 

06:53 
                                                   hold 
e|-22fb------22fb--22fb-22-22-20--17--17~~-17~~-19hb-19---------| 
B|--------------------------------------------------------------| 
G|-------------------------------------------------------//-\\--| 
D|-------------------------------------------------------//-\\--| 
A|--------------------------------------------------------------| 
E|--------------------------------------------------------------| 

e|-22fb--22fb--22fb--22fb-22fb-22fb-22fb-22-20--17--17--15--------------| 
B|--------------------------------------------------------g17\15--13~---| 
G|----------------------------------------------------------------------| 
D|----------------------------------------------------------------------| 
A|----------------------------------------------------------------------| 
E|----------------------------------------------------------------------| 

07:03 
e|-------17----15fb~~~----15fb-15-12-------15--------------------------| 
B|-17-17----17-----------------------15fb(hold)-15fbrp13---15----13-15-| 
G|------------------------------------------------------h14---14-------| 
D|---------------------------------------------------------------------| 
A|---------------------------------------------------------------------| 
E|---------------------------------------------------------------------| 

                    bend 3 half-steps 
e|---------------------v-----------------------------------------------------------------------| 
B|-15fb--15fb--15fb--15fbr-----13~~~--15-------------------------------------------------------| 
G|---------------------------------------14-12----12--------------------------------10---9---\-| 
D|---------------------------------------------14----13-12-10-12-12hbr-g10h12-p10--------------| 
A|-------------------------------------------------------------------------------h12-----------| 
E|---------------------------------------------------------------------------------------------| 

07:15 
e|--------------------------------------------| 
B|----------------------------------10--------| 
G|--------------------------------------------| 
D|-7~-----10------10-12fb-(hold-bend)--rb~~~--| 
A|-------------12-----------------------------| 
E|--------------------------------------------| 

e|--------------------------| 
B|----10--8h10~~~---10~~----| 
G|-9------------------------| 
D|--------------------------| 
A|--------------------------| 
E|--------------------------| 

e|---------0---------0----------0---------0---------0------| 
B|-10h13p10--11h14p11---12h15p12--13h16p13--14h17p14-------| 
G|-----------------------------------------------------\\--| to  
D|-----------------------------------------------------\\--|  fade  
A|---------------------------------------------------------|   out... 
E|---------------------------------------------------------| 


************************************ 

| h    Hammer-on 
| p    Pull-off 
| (n)  Ghost note 
| /    Slide up 
| g    Grace note 
| ~    Vibrato 
| \    Slide down 
| b    Bend 
| pbr  Pre-bend release 
| PM   Palm mute 
| br   Bend release 
| x    Dead note 
   

************************************ 
	  

there isn't a video lesson for this song

request
Search
auto scroll beats size up size down change color hide chords drawings
tab show chords e-chords YouTube Clip e-chords hide all tabs e-chords go to top tab