Buckethead

Siphoning Sequence

Buckethead

tabs

by  BRUNBLAZKOWSKI

save to print version add songbook text version e-mail correct tuner
chordsukulelecavacokeyboardtabbassdrumsharmonicaflute Guitar Pro
close

there isn't a video lesson for this song

chords

Siphoning Sequence

	  		 


This is the exact copy of the guitar section that i wrote for the guitar pro file of this song which i 
uploaded earlier this year. I hope you guys find it useful. 


Guitar I - 7-String Guitar (BEADGBE) 

Tempo= 120 
4/4 

                     Q.     E  E  E  E  E     E  E  E  E  E  E  E  E     E  E  E  E  E  E  E  E   
E||-------|-------|------------------------|--------------------------|-----------5--------------| 
B||-------|-------|------------------------|--------------------------|--------------------------| 
G||-------|-------|---------4--4--6--7--4--|--6--7--4--6--7--4--6--7--|--4--6--7-----4--6--7--4--| 
D||-------|-------|------------------------|--------------------------|--------------------------| 
A||-------|-------|------------------------|--------------------------|--------------------------| 
E||-------|-------|------------------------|--------------------------|--------------------------| 
B||-------|-------|------------------------|--------------------------|--------------------------| 


  E  E  E  E  E  E  E  E     E  E  E  E  E  E  E  E    E  E  E  E  E  E  E  E     E  E  E  E  E  E  E  E    
--------------------------|--------------------------|--------------------------|--------------------------| 
--------------------------|--------------0-----------|--------------0-----------|--------------0-----------| 
--6--7--4--6--7--7--4-----|--4--6--7--4--6--7--4-----|--4--6--7--4--6--7--4-----|--4--6--7--4--6--4--------| 
-----------------------7--|-----------------------4--|-----------------------4--|--------------------7--9--| 
--------------------------|--------------------------|--------------------------|--------------------------| 
--------------------------|--------------------------|--------------------------|--------------------------| 
--------------------------|--------------------------|--------------------------|--------------------------| 

  E  E  E  E  E  E  E  E     E  E  E  E  E  E  E  E     E  E  E  E  E  E  E  E     E  E  E  E  E  E  E  E   
--------------------------|--------------------------|--------------------------|--------------------------| 
--------------0-----------|--------------------------|--------------------------|--------------------------| 
--4--6--7--4--6--7--4-----|--4-----6--4--7--6-----4--|--4-----6--4--7--6-----4--|--4-----6--4--7--6-----4--| 
-----------------------4--|-----4--------------4-----|-----4--------------4-----|-----4--------------4-----| 
--------------------------|--------------------------|--------------------------|--------------------------| 
--------------------------|--------------------------|--------------------------|--------------------------| 
--------------------------|--------------------------|--------------------------|--------------------------| 


  E  E  E  E  E  E  E  E     E  E  E  E  E  E  E  E     E  E  E  E  E  E  E  E     Q.     S S S   S  E  Q      
--------------------------|--------------------------|--------------------------|---------------------------| 
--------------------------|--------------------------|--------------------------|---------------------------| 
--4-----6--4--7--6-----4--|--4-----6--4--7--6-----4--|--4-----6--4--7--6-----4--|--4------x-x-x-6g7p-6--4---| 
-----4--------------4-----|-----4--------------4-----|-----4--------------4-----|---------------------------| 
--------------------------|--------------------------|--------------------------|---------------------------| 
--------------------------|--------------------------|--------------------------|---------------------------| 
--------------------------|--------------------------|--------------------------|---------------------------| 


  Q.     E  E  E  E  E     Q.     S S H            Q.     E  E  E  E  E     Q.     S S S   S  E  Q        
------------------------|--5------5---5b--------|--L---------------------|----------------------------| 
------------------5--7--|-----------7-----------|---------7--7--5--5-----|----------------------------| 
--L------4--6--7--------|-----------------------|---------------------7--|--4------x-x-x-6g7p-6--4----| 
------------------------|-----------------------|------------------------|----------------------------| 
------------------------|-----------------------|------------------------|----------------------------| 
------------------------|-----------------------|------------------------|----------------------------| 
------------------------|-----------------------|------------------------|----------------------------| 


                                                      |---3--|  
  Q.     E  E  E  E  E     Q.     S S H            E  S   S  S Q    H           Q.     E  E  Q.       
------------------------|--5------5---5b--------|--L-------------------------|----------------------| 
------------------5--7--|-----------7-----------|-----7h-10p-7------7--------|----------------------| 
--L------4--6--7--------|-----------------------|--------------9-------------|--4------6--7---------| 
------------------------|-----------------------|----------------------------|---------------7------| 
------------------------|-----------------------|----------------------------|----------------------| 
------------------------|-----------------------|----------------------------|----------------------| 
------------------------|-----------------------|----------------------------|----------------------| 


  S  S E  E  Q    E  Q       H.             E  S S    S E.  S S S S  H           S S S S E  Q    E  E  E    
--------------------------|------------------------|--------------------------|---------------------------| 
--------------------------|------------------------|--------------------------|---------------------------| 
--------------------------|------------------------|--------------------------|--7-6-------------6--7--9--| 
--7s-9-7------------------|--------------------x-x-|--7-9---9-7---------------|------9-7-7--9-------------| 
----------7--5----7--9----|--9br-------------------|------------9-7-----------|---------------------------| 
--------------------------|------------------------|----------------10--------|---------------------------| 
--------------------------|------------------------|--------------------------|---------------------------| 


                                      |----3----|      
   Q.     E  H            Q    E  E   Q    Q    Q      H.           Q        Q     Q     H          
------------9b--------|--L----7---------------------|--------------------|--------14----14--------| 
--7------7------------|----------7--10--------------|--------------------|--12--------------------| 
----------------------|-------------------7----6----|--------------------|------------------------| 
----------------------|-----------------------------|--9-----------------|------------------------| 
----------------------|-----------------------------|--------------------|------------------------| 
----------------------|-----------------------------|--------------------|------------------------| 
----------------------|-----------------------------|--------------------|------------------------| 


       |---3---|                                                               |---3--|  |---3--| 
   E   S   S   Q     E   E.   E.   E      S   E.   H.              H           E  E   E  E   E  E      
---L--12h-14p-12----------------------|-------------------------|-----------------------------------| 
--------------------14--15---14-------|-------------------------|-----------------------------------| 
----------------------------------14--|--14s-11----L------------|-----------9g10--9------9------9s--| 
--------------------------------------|-------------------------|--------------------12-----12------| 
--------------------------------------|-------------------------|-----------------------------------| 
--------------------------------------|-------------------------|-----------------------------------| 
--------------------------------------|-------------------------|-----------------------------------| 


                             |-3|  |-3|     
   H.           Q       Q    E  S  S  E  E  E  Q       S  S Q    S  S  H          
---------------------|------------------------------|---------------------------| 
---------------------|------------------------------|---------------------------| 
--11-----------------|-------9--7h-9p-7--6--7-------|---------------------------| 
---------------------|-------------------------7----|--7s-9-L-------------------| 
---------------------|------------------------------|------------9p-7-----------| 
---------------------|------------------------------|-----------------10--------| 
---------------------|------------------------------|---------------------------| 

                      
  S  S  S   S       S S     S    S    
                                                             |--3--|  |--3--|  |--3--| 
  S  E  S S E.   E  S E  E  S    H        H           Q.     S  S  S  S  S  S  S  S  S E  E      
------------------------------|--------------------|-----------------------------------------| 
------------------------------|--------------------|-----------------------------------------| 
------------------------------|--------------------|-----------------------------------------| 
----------9--------------5----|--------------------|-----------------------------------------| 
------------------------------|-----------5--------|--L------0h-2p-0h-2p-0h-2p-0h-2p-0-------| 
------------7\------5-7-------|--------------------|-----------------------------------0-----| 
--0--0--0-------------------0-|--0-----------------|--------------------------------------3--| 
                                                                                       
                                 
  Q.     S S S  E.  Q       Q.     S S  S   S   E  E   E      Q.      S  S  Q.     E   
-------------------------|--------------------------------|---------------------------| 
-------------------------|--------------------------------|---------------------------| 
-------------------------|--------------------------------|--14------12-11-11------9--| 
-------------7h-9---L----|--L----------11h-12p-11--9--11--|---------------------------| 
---------x-x-------------|---------x-x--------------------|---------------------------| 
-------------------------|--------------------------------|---------------------------| 
--0----------------------|--------------------------------|---------------------------| 


                 |--3--|                                                              
     Q.     S  S S  S  S  S  E.  E     E.  E.  E  Q.     E     E   H.           S S   
------------------------------------|-----------------------|-----------------------| 
------------------------------------|-----------------------|-----------------------| 
--9g11------9p-7-9p-7h-9p-7s-6---6--|--6---7----------------|---------------------x-| 
------------------------------------|----------7--7------7--|--7s--9----------------| 
------------------------------------|-----------------------|-----------------------| 
------------------------------------|-----------------------|-----------------------| 
------------------------------------|-----------------------|-----------------------| 


              |----3---|   |-3-|                                          
   H          E    E   E   E   Q         S  E.    E.    Q.       S  S S     Q.      S S  Q.     S S  
--12b--------12b--12--10--12--12b----|--10------------------------------|---------------------------| 
-------------------------------------|-----12~---12~---12~-------L-10-7-|--10-----------------------| 
-------------------------------------|----------------------------------|----------11-9-11------9-7-| 
-------------------------------------|----------------------------------|---------------------------| 
-------------------------------------|----------------------------------|---------------------------| 
-------------------------------------|----------------------------------|---------------------------| 
-------------------------------------|----------------------------------|---------------------------| 


  |---3--|                                                                    |--3--|   
  E   E  E  Q    S E.   Q       E  S S S S S S  Q.     E     Q    S  E  S  E  E  E  E   E  
-----------------------------|----------------------------|--------------------------------| 
-----------------------------|----------------------------|--------------------------------| 
--9b--9--7--9----7-----------|----------------------------|-------------------7--9--9b--L--| 
-------------------9~---9----|--L--9-7---7-------------9--|--L----7s-9--7s-9---------------| 
-----------------------------|---------9---9-7------------|--------------------------------| 
-----------------------------|-----------------10---------|--------------------------------| 
-----------------------------|----------------------------|--------------------------------| 

                                                     
  S S S E.  H        E     E  E  E  E  S  E.  E  E     Q.      S  S   Q.      S   S    
------------------------|---------------------------|--------------------------------| 
------------------------|---------------------------|------------------------12p-10h-| 
--9-7-9-7---6--------7--|--7------------------------|---------11p-9h-11--------------| 
------------------------|-----7--7--7--7s-9---L-----|--9-----------------------------| 
------------------------|---------------------------|--------------------------------| 
------------------------|---------------------------|--------------------------------| 
------------------------|---------------------------|--------------------------------| 

                                                                      |--3--| 
   Q.      S   S   E   E   E   E      Q.       S  S   Q    Q       E  S  S  S  E  E  E  E  E  E   
----------14p-12h-14--12----------|-----------------------------|--------------------------------| 
--12----------------------15--14--|--12~------------------------|--------------------------------| 
----------------------------------|-----------11p-9h-11----9----|--L--7h-9p-7p-6--7--6-----6--7--| 
----------------------------------|-----------------------------|-----------------------9--------| 
----------------------------------|-----------------------------|--------------------------------| 
----------------------------------|-----------------------------|--------------------------------| 
----------------------------------|-----------------------------|--------------------------------| 

                                               
  E  E  E  E  E  E  E  E     Q    E  E  T  S. E  Q       T  S. E.  S S S  Q     S  S  S  S   
--------------------------|---------------------------|------------------------------------| 
--------------------------|---------------------------|------------------------------------| 
-----6--7--6-----6--7-----|---------------------------|------------------------------------| 
--9-----------9--------7--|--7-------7--7h-9--L--7----|--7h-9--L---7-----------------------| 
--------------------------|-------9-------------------|--------------9-7-------------------| 
--------------------------|---------------------------|------------------10-----L----------| 
--------------------------|---------------------------|---------------------------10-12-10-| 


   Q     S  S S S H           S  S S  S S  S S  S Q    Q        Q    S  S  E  E  E  E  E     S  E.   H.           
---------------------------|---------------------------------|----------------------------|-----------------| 
---------------------------|---------------------------------|----------------------------|-----------------| 
---------------------------|----------------------7----9b----|--L----9p-7h-9--7--6--7-----|-----------------| 
---------------------------|-----------------7h-9------------|-------------------------7--|--7s-9~---L------| 
---------------------------|-------5h-7-7s-9-----------------|----------------------------|-----------------| 
---------------------------|--5h-7---------------------------|----------------------------|-----------------| 
--12-----L-10-7-5-0--------|---------------------------------|----------------------------|-----------------| 


  H        E  Q.         E   E   E   E  E  E   E   E      E   E  E  E   E   E   E   E    
---------------------|--10--10--10--10--9--9----------|--------------------------------| 
---------------------|------------------------10--10--|--------------------------------| 
---------------------|--------------------------------|--11--11--9--9------------------| 
--L-----------9------|--------------------------------|----------------12--12--11--11--| 
---------------------|--------------------------------|--------------------------------| 
---------------------|--------------------------------|--------------------------------| 
---------------------|--------------------------------|--------------------------------| 


  E  E   E  E  E   E  E   E     E  E   E  E   E   E   E  E     E  E   E  E  E   E  E  E    
-----------------------------|------------------------------|----------------------------| 
-----------------------------|---------------10-------------|----------------------------| 
--------11--------11-----11--|--------11---------12--11-----|--------11--------11--------| 
--9--9------9--9------9------|--9--9------9--------------9--|--9--9------9--9------9--9--| 
-----------------------------|------------------------------|----------------------------| 
-----------------------------|------------------------------|----------------------------| 
-----------------------------|------------------------------|----------------------------| 


  E  E   E  E  E   E  E   E     E  E   E  E  E   E  E   E     E  E   E  E   E   E   E  E    
-----------------------------|-----------------------------|------------------------------| 
-----------------------------|-----------------------------|---------------10-------------| 
--------11--------11-----11--|--------11--------11-----11--|--------11---------12--11-----| 
--9--9------9--9------9------|--9--9------9--9------9------|--9--9------9--------------9--| 
-----------------------------|-----------------------------|------------------------------| 
-----------------------------|-----------------------------|------------------------------| 
-----------------------------|-----------------------------|------------------------------| 


  E  E   E  E  E   E  E  E     E  E   E  E  E   E  E   E     S S S S  S S S  S S S  S S S  S S S   
----------------------------|-----------------------------|---------------------------------------| 
----------------------------|-----------------------------|--7---0--------------------------------| 
--------11--------11--------|--------11--------11-----11--|----4---4h-6---6p-4---4h-7---7p-6---6h-| 
--9--9------9--9------9--9--|--9--9------9--9------9------|-------------4------4------4------9----| 
----------------------------|-----------------------------|---------------------------------------| 
----------------------------|-----------------------------|---------------------------------------| 
----------------------------|-----------------------------|---------------------------------------| 


  S S S  S S S  S S S  S S S  S S S   S     E  S  E  S  S  S S S   S S  S   S S  S     
----------------------------------------|-------------------------------------------| 
----------------------------------------|-------------------------------------------| 
--9---9p-7---7p-6---6h-7---7h-9---9h-11-|--11----11----11p-9---9h-11---11h-12---12p-| 
----9------7------7------7------7-------|------9-----9-------9-------9--------9-----| 
----------------------------------------|-------------------------------------------| 
----------------------------------------|-------------------------------------------| 
----------------------------------------|-------------------------------------------| 


   S S  S  S S  S   S S  E   S  S   S  S  E     S S S S  S S S  S S S  S S S  S S S    
---------------------------------------------|---------------------------------------| 
---------------12p-10---12-----15p-14----14--|--7---0--------------------------------| 
--11---11p-9---------------------------------|----4---4h-6---6p-4---4h-7---7p-6---6h-| 
-----9-------9--------9-----12--------12-----|-------------4------4------4------9----| 
---------------------------------------------|---------------------------------------| 
---------------------------------------------|---------------------------------------| 
---------------------------------------------|---------------------------------------| 


  S S S  S S S  S S S  S S S  S S S   S     E  S  E  S  S  S S S   S S  S   S S  S    
----------------------------------------|-------------------------------------------| 
----------------------------------------|-------------------------------------------| 
--9---9p-7---7p-6---6h-7---7h-9---9h-11-|--11----11----11p-9---9h-11---11h-12---12p-| 
----9------7------7------7------7-------|------9-----9-------9-------9--------9-----| 
----------------------------------------|-------------------------------------------| 
----------------------------------------|-------------------------------------------| 
----------------------------------------|-------------------------------------------| 


   S S  S  S S  S   S S  E   S  S   S  S  E     S S S S  S S S  S S S  S S S  S S S    
---------------------------------------------|---------------------------------------| 
---------------12p-10---12-----15p-14----14--|--7---0-------------------------------- 
--11---11p-9---------------------------------|----4---4h-6---6p-4---4h-7---7p-6---6h-| 
-----9-------9--------9-----12--------12-----|-------------4------4------4------9----| 
---------------------------------------------|---------------------------------------| 
---------------------------------------------|---------------------------------------| 
---------------------------------------------|---------------------------------------| 


  S S S  S S S  S S S  S S S  S S S   S     E  S  E  S  S  S S S   S S  S   S S  S   
----------------------------------------|-------------------------------------------| 
----------------------------------------|-------------------------------------------| 
--9---9p-7---7p-6---6h-7---7h-9---9h-11-|--11----11----11p-9---9h-11---11h-12---12p-| 
----9------7------7------7------7-------|------9-----9-------9-------9--------9-----| 
----------------------------------------|-------------------------------------------| 
----------------------------------------|-------------------------------------------| 
----------------------------------------|-------------------------------------------| 


   S S  S  S S  S   S S  E   S  S   S  S  E     S S S S  S S S  S S S  S S S  S S S   
---------------------------------------------|---------------------------------------| 
---------------12p-10---12-----15p-14----14--|--7---0--------------------------------| 
--11---11p-9---------------------------------|----4---4h-6---6p-4---4h-7---7p-6---6h-| 
-----9-------9--------9-----12--------12-----|-------------4------4------4------9----| 
---------------------------------------------|---------------------------------------| 
---------------------------------------------|---------------------------------------| 
---------------------------------------------|---------------------------------------| 


  S S S  S S S  S S S  S S S  S S S   S     E  S  E  S  S  S S S   S S  S   S S  S    
----------------------------------------|-------------------------------------------| 
----------------------------------------|-------------------------------------------| 
--9---9p-7---7p-6---6h-7---7h-9---9h-11-|--11----11----11p-9---9h-11---11h-12---12p-| 
----9------7------7------7------7-------|------9-----9-------9-------9--------9-----| 
----------------------------------------|-------------------------------------------| 
----------------------------------------|-------------------------------------------| 
----------------------------------------|-------------------------------------------| 


   S S  S  S S  S   S S  E   S  S   S  S  E      H.           E   E      Q     Q.     Q.     
---------------------------------------------|-----------------------|-----------------------| 
---------------12p-10---12-----15p-14----14--|-----------------------|-----------------------| 
--11---11p-9---------------------------------|--11------------9s--7--|-----------------------| 
-----9-------9--------9-----12--------12-----|-----------------------|--11s----7-------------| 
---------------------------------------------|-----------------------|----------------9------| 
---------------------------------------------|-----------------------|-----------------------| 
---------------------------------------------|-----------------------|-----------------------| 


  Q    E  E  E  E  Q       Q.     E  E  E  E  E     T  S. E  E   E  E  E   E  E    
------------------------|------------------------|-------------------------------| 
------------------------|------------------------|-------------------------------| 
----------7-------------|---------6--7--6--------|-------------------------------| 
--9----------9--9--9----|--L---------------7-----|--7s-9--9-----12--9-----11-----| 
-------9----------------|---------------------7--|-----------9---------9------9--| 
------------------------|------------------------|-------------------------------| 
------------------------|------------------------|-------------------------------| 


  E   E   E  E  E   E  E  E     E  E  E   E  E   E  E   E     E   E   E   E  E   E  E  E    
-----------------------------|-----------------------------|------------------------------| 
-----------------------------|-----------------------------|------------------------------| 
-----------------------------|-------------------------11--|------------------------------| 
--9--12--11-----9------9-----|--9--9-----14-----12---------|-----14--12--11--9------9-----| 
-------------9-----12-----9--|--------9------9------9------|--9-----------------12-----9--| 
-----------------------------|-----------------------------|------------------------------| 
-----------------------------|-----------------------------|------------------------------| 


  E  E  E   E  E   E  E  E     E   E  E  E   E   E  E  E     E  E  E   E  E   E  E   E    
----------------------------|-----------------------------|-----------------------------| 
----------------------------|-----------------------------|-----------------------------| 
----------------------------|-----------------------------|-----------11------------12--| 
--9--9-----14-----12-----9--|---------9-----12--11--9-----|--9--9------------12---------| 
--------9------9------9-----|--9--12-----9-------------9--|--------9------9------9------| 
----------------------------|-----------------------------|-----------------------------| 
----------------------------|-----------------------------|-----------------------------| 


  E   E  E   E   E  E   E  E      E   E   Q        E  E   Q        E  E  E  E  Q    Q       
------------------------------|---------------------------------|-------------------------| 
------------------------------|--12--10--12~--------------------|-------------------------| 
-----14-----12--11-----11-----|-----------------9g11--9--11~----|--9--7--6-----4----4~----| 
------------------------------|---------------------------------|-----------7-------------| 
--9------9----------9------9--|---------------------------------|-------------------------| 
------------------------------|---------------------------------|-------------------------| 
------------------------------|---------------------------------|-------------------------| 

                                       |--3--|                      
   E   E   Q        E  E   Q        E  S  S  S  E  E  Q    S  E.     H        H         
---------------------------------|--------------------------------|--------------------|----|----|----|----|| 
--12--10--12~--------------------|--------------------------------|--------------------|----|----|----|----|| 
-----------------9g11--9--11~----|--9--7h-9p-7p-6--4--4-----------|--------------------|----|----|----|----|| 
---------------------------------|-------------------------2s-4---|--------------------|----|----|----|----|| 
---------------------------------|--------------------------------|--2-----------------|----|----|----|----|| 
---------------------------------|--------------------------------|--------------------|----|----|----|----|| 
---------------------------------|--------------------------------|--------------------|----|----|----|----|| 


Duration Legend 
--------------- 
W - whole 
H - half 
Q - quarter 
E - 8th 
S - 16th 
T - 32nd 
X - 64th 
. - note dotted 
|-n-|  - n-tuplets 


Tablature Legend 
---------------- 
L - tied note 
x - dead note 
g - grace note 
(n) - ghost note 
> - accentuded note 
NH - natural harmonic 
AH - artificial harmonic 
TH - tapped harmonic 
SH - semi harmonic 
PH - pitch harmonic 
h - hammer on 
p - pull off 
b - bend 
br - bendRelease 
pb - preBend 
pbr - preBendRelease 
brb - bendReleaseBend 
\n/ - tremolo bar dip 
\n - tremolo bar dive 
-/n - tremolo bar Release up 
/n\ - tremolo bar inverted dip 
/n - tremolo bar return 
-\n - tremolo bar Release down 
S - shift slide 
s - legato slide 
/ -  slide into from below or out of upwards 
\ -  slide into from above or out of downwards 
~ - vibrato 
W - wide vibrato 
tr - trill 
TP - tremolo picking 
T - tapping 
S - slap 
P - pop 
< - fade in 
^ - brush up 
v - brush down 
		  

See also:

tabs Skrillex - Make It Burn Dem tabs Kaskade - Turn It Down tabs Shiny Toy Guns - Ghost Town tabs Fedde Le Grand - Put Your Hands Up 4 Detroit tabs Buckethead - Nightrain (solo) tabs Buckethead - Shaded Ray
e-chords

Other versions:

tabs Buckethead - Siphoning Sequence
auto scroll beats size up size down change color hide chords drawings
tab show chords e-chords YouTube Clip e-chords hide all tabs e-chords go to top tab

share