Buckethead

For Mom

Buckethead

bass

by  IRONPOWER4EVER

save to print version add songbook text version e-mail correct tuner
chordsukulelecavacokeyboardtabbassdrumsharmonicaflute Guitar Pro
close

there isn't a video lesson for this song

chords

For Mom

Year: 1998 - Album: Colma

	  		
Intro w/ Guitar Only 

Main Riff / Verse 
G|----------------|----------------|----------------|----------------| 
D|----------------|----------------|----------------|----------------| 
A|----------------|----------------|----------------|----------------| 
E|-4--------------|----------------|--4-------------|----------------| 
(Let ring --->) 

G|----------------|----------------|----------------|----------------| 
D|----------------|----------------|----------------|----------------| 
A|----------------|----------------|----------------|----------------| 
E|-0--------------|----------------|--4-------------|----------------| 
(Let ring --->) 


Bridge 
G|----------------|----------------|----------------|----------------| 
D|----------------|----------------|----------------|----------------| 
A|----------------|----------------|----------------|----------------| 
E|-4--4--4---4-2--|-4--4--4---4-2--|-4--4--4---4-2--|-4--4--4---4-2--| 

G|----------------|----------------| 
D|----------------|----------------| 
A|----------------|----------------| 
E|-4-----------2--|-4--------------| 
(Let ring --->) 


Chorus 
G|----------------|----------------|----------------|----------------| 
D|----------------|----------------|----------------|----------------| 
A|-2--2--2---2-2--|----------------|----------------|-2--2--2---2-2--| 
E|----------------|-2--2--2---2-2--|-0--0--0---0-0--|----------------| 

G|----------------|----------------|----------------|----------------| 
D|----------------|----------------|----------------|----------------| 
A|-2--2--2---2-2--|----------------|----------------|-2--2--2---2-2--| 
E|----------------|-2--2--2---2-2--|-0--0--0---0-0--|----------------| 

G|----------------|----------------|----------------|----------------| 
D|----------------|----------------|----------------|----------------| 
A|----------------|----------------|----------------|----------------| 
E|-4--------------|----------------|--0-------------|----------------| 
(Let ring --->) 


Main Riff / Verse 
G|----------------|----------------|----------------|----------------| 
D|----------------|----------------|----------------|----------------| 
A|----------------|----------------|----------------|----------------| 
E|-4--------------|----------------|--4-------------|----------------| 
(Let ring --->) 

G|----------------|----------------|----------------|----------------| 
D|----------------|----------------|----------------|----------------| 
A|----------------|----------------|----------------|----------------| 
E|-0--------------|----------------|--4-------------|----------------| 
(Let ring --->) 


Bridge 
G|----------------|----------------|----------------|----------------| 
D|----------------|----------------|----------------|----------------| 
A|----------------|----------------|----------------|----------------| 
E|-4--4--4---4-2--|-4--4--4---4-2--|-4--4--4---4-2--|-4--4--4---4-2--| 

G|----------------|----------------|----------------|----------------| 
D|----------------|----------------|----------------|----------------| 
A|----------------|----------------|----------------|----------------| 
E|-4--4--4---4-2--|-4--4--4---4-2--|-4--4--4---4-2--|-4--4--4---4-2--| 

G|----------------|----------------|----------------|----------------| 
D|----------------|----------------|----------------|----------------| 
A|----------------|----------------|----------------|----------------| 
E|-4-----------2--|-4-----------2--|-4-----------2--|-4--------------| 
(Let ring --->) 


Chorus 
G|----------------|----------------|----------------|----------------| 
D|----------------|----------------|----------------|----------------| 
A|-2--2--2---2-2--|----------------|----------------|-2--2--2---2-2--| 
E|----------------|-2--2--2---2-2--|-0--0--0---0-0--|----------------| 

G|----------------|----------------|----------------|----------------| 
D|----------------|----------------|----------------|----------------| 
A|-2--2--2---2-2--|----------------|----------------|-2--2--2---2-2--| 
E|----------------|-2--2--2---2-2--|-0--0--0---0-0--|----------------| 

G|----------------|----------------|----------------|----------------| 
D|----------------|----------------|----------------|----------------| 
A|-2--2--2---2-2--|----------------|----------------|-2--2--2---2-2--| 
E|----------------|-2--2--2---2-2--|-0--0--0---0-0--|----------------| 

G|----------------|----------------|----------------|----------------| 
D|----------------|----------------|----------------|----------------| 
A|-2--2--2---2-2--|----------------|----------------|-2--2--2---2-2--| 
E|----------------|-2--2--2---2-2--|-0--0--0---0-0--|----------------| 

G|----------------|----------------|----------------|----------------| 
D|----------------|----------------|----------------|----------------| 
A|----------------|----------------|----------------|----------------| 
E|-4--------------|----------------|--0-------------|----------------| 


Final Section / Guitar Solo 
G|----------------|----------------|----------------|----------------| 
D|----------------|----------------|----------------|----------------| 
A|-3--3--3---3-3--|-1--1--1---1-1--|----------------|-3--3--3---3-3--| 
E|----------------|----------------|-4--4--4---4-4--|----------------| 
(Many times till the end of the song) 
 
		  

See also:

bass Empire of the sun - Way To Go bass Massive Attack - Paradise Circus bass Flying Lotus - Dance Of The Pseudo Nymph bass Buckethead - For Mom bass Air - Alone In Kyoto
e-chords

Other versions:

bass Buckethead - For Mom
auto scroll beats size up size down change color hide chords drawings
tab show chords e-chords YouTube Clip e-chords hide all tabs e-chords go to top tab

share