Buckethead

Electric Sea

Buckethead

tabs Advanced advanced

by  EDUCASTILHO

save to print version add songbook text version e-mail correct tuner
chordsukulelecavacokeyboardtabbassdrumsharmonicaflute Guitar Pro
close

there isn't a video lesson for this song

chords

Electric Sea

	  		




|---------------|----------------------| 
|---------------|---9-7----------------| 
|---9-8-6-8-9-8-|-9------8-9-8------6--| 
|---------------|---------------9-6----| 
|---------------|----------------------| 

|--12-11-------------|--14-16------------------| 
|--------12-9-7-9-7--|-------16--17-16-16-14---| 
|--------------------|-------------------------| 
|--------------------|-------------------------| 
|--------------------|-------------------------| 
|--------------------|-------------------------| 

|--11----------------|-----11--------------------------| 
|-----12-----/9--9---|--------12-----------------------| 
|--------------------|--13---------9-11-/13-11-9h11p9--| 
|--------14----------|---------------------------------| 
|--------------------|---------------------------------| 
|--------------------|---------------------------------| 

|-------/9-7---------/9-7------|-9h11-11/12-11-9-11-------------| 
|------------10-9---------10-9-|--------------------12----------| 
|-9-8-9------------9-----------|-----------------------11b(13)--| 
|------------------------------|--------------------------------| 
|------------------------------|--------------------------------| 
|------------------------------|--------------------------------| 

|---9h11-11/12-11----9-------|-9h11-11/12-11----9?9/14-14-12-11-11--| 
|-9---------------12---/9----|---------------12---------------------| 
|-----------------------/11--|--------------------------------------| 
|----------------------------|--------------------------------------| 
|----------------------------|--------------------------------------| 
|----------------------------|--------------------------------------| 

|----------9-11-12-12--| |--12-14-/16-14-12-11--|   |-----------| 
|-12-------------------| |----------------------|   |-12--------| 
|----11-13-------------| |----------------------|x3 |----11-13--| 
|----------------------| |----------------------|   |-----------| 
|----------------------| |----------------------|   |-----------| 
|----------------------| |----------------------|   |-----------| 

|-12-14-/16-14-12-11--|    |--------------------12----------------| 
|---------------------|    |-14-14-12-12-----------14-14-12-12----| 
|---------------------|x2  |-------------/13-13----------------13-| 
|---------------------|    |--------------------------------------| 
|---------------------|    |--------------------------------------| 
|---------------------|    |--------------------------------------| 

|-12-14-/16-14-12-11-------------------|--------------| 
|--------------------------------------|--------------| 
|----------------------9-11-/13-11-9-8-|-9-8----------| 
|--------------------------------------|-----9-/11-9--| 
|--------------------------------------|--------------| 
|--------------------------------------|--------------| 

|-16-17-16-14----------16-|-16-17-16-14-------------14?16-| 
|-------------17-16-------|-------------17----14----------| 
|-------------------16----|----------------16----14-------| 
|-------------------------|-------------------------------| 
|-------------------------|-------------------------------| 
|-------------------------|-------------------------------| 

|-16-17-16-14----------14-/16-14------------| 
|-------------16----17-----------16----14---| 
|----------------16-----------------16------| 
|-------------------------------------------| 
|-------------------------------------------| 
|-------------------------------------------| 

|-----11h12p11-/14-/16-16-16b17r16----------------------9-11b12---| 
|--------------------------------------------------9-12-----------| 
|-/13-------------------------------------9p8h9-11----------------| 
|-------------------------------------/11-------------------------| 
|----------------------------------11-----------------------------| 
|-----------------------------------------------------------------| 

|-11b12-11b12-9-9-/16---------------------------------------| 
|---------------------14-------/14--16b17-14----14-14-14+---| 
|------------------------16-13---------------16-------------| 
|-----------------------------------------------------------| 
|-----------------------------------------------------------| 
|-----------------------------------------------------------| 


|---------------------11-12-12-14-14-12-11h12p11-11-12-12-11----------| 
|-16b17-14-14------------------------------------------------12-------| 
|----------------/13--------------------------------------------11h13-| 
|-------------14------------------------------------------------------| 
|---------------------------------------------------------------------| 
|---------------------------------------------------------------------| 

|----------------------------11-12-12-14-11-12-----| 
|-----------------------9-9--------------------12--| 
|-\9-9-9p8---------9-11----------------------------| 
|----------9---------------------------------------| 
|------------9/11----------------------------------| 
|--------------------------------------------------| 

|----11-12-12--------------------------------| 
|-/9----------12-----------------------------| 
|----------------11b13-11-13-11?8h9p8-8-9-9--| 
|--------------------------------------------| 
|--------------------------------------------| 
|--------------------------------------------| 

Killswitch Solo 

|------------------------------12-14-12-11-----| 
|------------------------------------------14--| 
|-9----------------------11-13-----------------| 
|------11-9------------------------------------| 
|-----------11---------11----------------------| 
|--------------12-11-9-------------------------| 

Solo 
|------------------------------19b21?16b17-----| 
|-16h17-17p16-14-14------16-17-----------------| 
|-------------------/13------------------------|x2 
|----------------------------------------------| 
|----------------------------------------------| 
|----------------------------------------------| 

|--------------------------------------------| 
|-16-16b17--14-14--17-16-14-------14---------| 
|---------------------------16-16----13-/13--| 
|--------------------------------------------| 
|--------------------------------------------| 
|--------------------------------------------| 

|-------------------------17----------------| 
|---------9-12+--14-16-16b17-17-17-17-16/---| 
|----9-11-----------------------------------| 
|-11----------------------------------------| 
|-------------------------------------------| 
|-------------------------------------------| 

|-----------------------11h12-14-/16-12-11-| 
|------------------------------------------| 
|-----------------11h13--------------------| 
|-/14-13-11-13-14--------------------------| 
|------------------------------------------| 
|------------------------------------------| 

|-11b12-9-9---9-----------------------------------| 
|---------------12-12-9-9-12----------------------| 
|----------------------------9-/13---11b13-9-8----| 
|-------------------------------------------------| 
|-------------------------------------------------| 
|-------------------------------------------------| 

|-----------------------------------------------14---------------------| 
|---------------------16-14-16-14----16----17---------17---16---141214-| 
|----------------------------------13--1313--1313-1313?1313--13--------| 
|----11-14-11-14-13----------------------------------------------------| 
|-11-------------------------------------------------------------------| 
|----------------------------------------------------------------------| 
|                               MUTED                            |  


|-------/1616161616-16-19-16?14/16-14------------------------------| 
|---------------------------------------16h17p16p14-16b17-14-14----| 
|-------------------------------------?----------------------------| 
|------------------------------------------------------------------| 
|------------------------------------------------------------------| 
|-(/16)------------------------------------------------------------| 

|-161616-16-19-16-14b16r14---14h16p14---------------------| 
|-------------------------------------16-16b17r16-14-14---| 
|---------------------------------------------------------| 
|---------------------------------------------------------| 
|---------------------------------------------------------| 
|---------------------------------------------------------| 
|-16-19-14-14-14/16\14-----------------------| 
|----------------------17-16-16b17r16-14-14--| 
|--------------------------------------------| 
|--------------------------------------------| 
|--------------------------------------------| 
|--------------------------------------------| 

|----------11-12-11-/14-12-11-11-12--------------11-11/12\11----------| 
|----12-14--------------------------14-----12-14-------------14-12-14-| 
|-11------------------------------------11----------------------------| 
|---------------------------------------------------------------------| 
|---------------------------------------------------------------------| 
|---------------------------------------------------------------------| 

|-SOFT-| 
|-11b12----11h12p11------------| |-11b12r11-11h12p11----------------| 
|-------------------12--14-----| |-------------------14-12-14-------| 
|--------------------------/13-| |----------------------------\13---|x2 
|------------------------------| |----------------------------------| 
|------------------------------| |----------------------------------| 
|------------------------------| |----------------------------------| 

|-------------------12-11-----------------------| 
|----------------12-------14----12h14p12--------| 
|----------13h14-------------------------13-----| 
|-11h14h15--------------------------------------| 
|-----------------------------------------------| 
|-----------------------------------------------| 



************************************ 

| /   slide up 
| \   slide down 
| h   hammer-on 
| p   pull-off 
| +   harmonic 
| b   Bend 
| r  Bend release 


************************************ 
		  

See also:

tabs DHT - Listen To Your Heart tabs Shiny Toy Guns - Money For That tabs Buckethead - Callbox tabs Buckethead - Halloween Theme tabs Starfucker - Bury Us Alive tabs Buckethead - Nightrain (solo)
e-chords

Other versions:

tabs Buckethead - Electric Sea
auto scroll beats size up size down change color hide chords drawings
tab show chords e-chords YouTube Clip e-chords hide all tabs e-chords go to top tab

share