Buckethead

Shaded Ray

Buckethead

tabs

by  TERR_SCHMITZ

save to print version add songbook text version e-mail correct tuner
chordsukulelecavacokeyboardtabbassdrumsharmonicaflute Guitar Pro
close

there isn't a video lesson for this song

chords

Shaded Ray

	  		
Intro 

e|--------7---------------7---------------7----------------------------------| 
B|----9-------9---9---7-------7---7---5-----5---5----9-7--5--7---------------| 
G|--9---9---9---9---8---8---8---8---6---6-----6---6--9-8--6--8---------------| 3x 
D|---------------------------------------------------------------------------| 
A|---------------------------------------------------------------------------| 
E|---------------------------------------------------------------------------| 

the fourth time he changes the last note like so 

e|--------7---------------7---------------7----------------------------------| 
B|----9-------9---9---7-------7---7---5-----5---5----9-7--5--4---------------| 
G|--9---9---9---9---8---8---8---8---6---6-----6---6--9-8--6--4---------------| 
D|---------------------------------------------------------------------------| 
A|---------------------------------------------------------------------------| 
E|---------------------------------------------------------------------------| 

first part 

e|---------------------------------------------------------------------------| 
B|---------------------5--4--------------------------------------------------| 
G|---------------------------6-4-------------------4-4h6---------------------| 
D|------6-4--6/7----------------------6-4--6/7-----------7p6-----------------| 
A|--7-7----------7--7-------------7-7----------7--7--------------------------| 
E|--0------------0----------------0------------0-----------------------------| 

e|---------------------------------------------------------------------------| 
B|---------------------7p5--4h5----------------------------------------------| 
G|-------------------------------------------------4-4h6---------------------| 
D|------6-4--6/7----------------------6-4--6/7-----------7p6-----------------| 
A|--7-7----------7--7-------------7-7----------7--7--------------------------| 
E|--0------------0----------------0------------0-----------------------------| 

then 

e|---------------------------------------------------------------------------| 
B|---------------------------------------------------------------------------| 
G|----9p8---8p6---4-4h6------------9p8---8p6---6/8--6--4-4h6v----------------| 
D|----------------------6h7-6------------------------------------------------| 
A|----------------------7-----7----------------------------------------------| 
E|--9-----7-----5----------------9-----7-----5-------------------------------| 

e|---------------------------------------------------------------------------| 
B|---------------------------------------------------------------------------| 
G|----9p8---8p6---4-4h6------------9p8---8p6---4h6~--------------------------| 
D|----------------------7~---------------------------------------------------| 
A|----------------------7~---------------------------------------------------| 
E|--9-----7-----5----------------9-----7-----5-------------------------------| 

back to intro 

e|--------7---------------7---------------7----------------------------------| 
B|----9-------9---9---7-------7---7---5-----5---5----9-7--5--7---------------| 
G|-/9---9---9---9---8---8---8---8---6---6-----6---6--9-8--6--8---------------| 2x 
D|---------------------------------------------------------------------------| 
A|---------------------------------------------------------------------------| 
E|---------------------------------------------------------------------------| 

second part 

e|----------------------------------------------| 
B|----------------------------------------------| 
G|----6p4h6------------4---------------4--------| 
D|----------4h6-6p4---------4-------------------| 
A|--4~--------------7-----------6h7-7-----7-----| 
E|------------------------7---5-----------------| 

e|------------------------------------------| 
B|-----------------------------5------------| 
G|----6p4h6----------4-------4--------------| 
D|----------4h6-6p4---------------7-6-------| 
A|--4~--------------------------------7-----| 
E|-----------------------7------------------| 

e|----------------------------------------------| 
B|----------------------------------------------| 
G|----6p4h6------------4---------------4--------| 
D|----------4h6-6p4---------4-------------------| 
A|--4~--------------7-----------6h7-7-----7-----| 
E|------------------------7---5-----------------| 


e|-------------------------------------------| 
B|---------------------------4h5--4----------| 
G|----6p4h6----------4-----------------------| 
D|----------4h6-6p4--------------------------| 
A|--4~---------------------------------------| 
E|-----------------------7-----5-------------| 


e|------------------------------------------------| 
B|------------------------------------------------| 
G|------------------------------------------------| 3x 
D|--6p4h6---6p4h6---4p2h4---2p1h2---2p1h2-4p2h4---| 
A|--4---4---4---4---2---2---0---0---0---0-2---2---| 
E|------------------------------------------------| 

the fourth time goes like 

e|------------------------------------------------| 
B|------------------------------------------------| 
G|------------------------------4~----------------|  
D|--6p4h6---6p4h6---4p2h4---2p1h2~----------------| 
A|--4---4---4---4---2---2---0---0~----------------| 
E|------------------------------------------------| 

then back to intro 

e|--------7---------------7---------------7----------------------------------| 
B|----9-------9---9---7-------7---7---5-----5---5----9-7--5--7---------------| 
G|--9---9---9---9---8---8---8---8---6---6-----6---6--9-8--6--8---------------| 2x 
D|---------------------------------------------------------------------------| 
A|---------------------------------------------------------------------------| 
E|---------------------------------------------------------------------------| 

third part 

e|------------------------------------------------------------------| 
B|-------------------------5~--------------------4--5---------------| 
G|----6p4h6-------4--4--6--4~-----6p4h6-------4--4--4--4------------| 
D|----------4-4h6----4--6--2~-----------4-4h6----2--2--4--4---------| 
A|--4----------------2--4--------4---------------------2--4---------| 
E|--------------------------------------------------------2---------| 

e|----------------------------------------------------------------| 
B|-------------------4--5------------------------4--5-------------| 
G|----6p4h6-------4--4--4--4~-----6p4h6-------4--4--4--4~---------| 
D|----------4-4h6----2--2--4~-----------4-4h6----2--2--4~---------| 
A|--4----------------------2~----4---------------------2~---------| 
E|----------------------------------------------------------------| 


e|----------------------------------7~----------------------------------------0~-----| 
B|------------------------------------7~----------------------------------------4~---| 
G|--------------------------------9-----------------------------------------2~-------| 2x 
D|-6-6-6-6-6\4-4-4-4/6-6-6\4-4-4--9~---------6-6-6-6-6\4-4-4-4/6-6-6\4-4-4--2~-------| 
A|-4-4-4-4-4\2-2-2-2/4-4-4\2-2-2--7~---------4-4-4-4-4\2-2-2-2/4-4-4\2-2-2--0~-------| 
E|-----------------------------------------------------------------------------------| 



************************************ 

| h  Hammer-on 
| p  Pull-off 
| /  Slide up 
| ~  Vibrato 
| \  Slide down 

************************************ 
		  

See also:

tabs Shiny Toy Guns - When Did This Storm Begin tabs Celldweller - The Wings Of Icarus tabs Peaches - Sucker tabs Buckethead - Four Rivers tabs Shiny Toy Guns - Ricoche tabs To Mars and Back Again - Follow the yellow brick road
e-chords

Other versions:

tabs Buckethead - Shaded Ray
auto scroll beats size up size down change color hide chords drawings
tab show chords e-chords YouTube Clip e-chords hide all tabs e-chords go to top tab

share