Buckethead

Soothsayer (solo)

Buckethead

tabs Expert expert

by  AND-GATTO

save to print version add songbook text version e-mail correct tuner
chordsukulelecavacokeyboardtabbassdrumsharmonicaflute Guitar Pro
close

there isn't a video lesson for this song

chords

Soothsayer (solo)

	  		|------------9p8----------------------------------------| 
|-------11--------11----9h11p9---9---7--6-7p6-----------| 
|---10---------------10--------8---8----------6---------| 
|-8-----------------------------------------------------| 
|-------------------------------------------------------| 
|-------------------------------------------------------| 

|------------9p8----------------------------------------| 
|-------11--------11----9h11p9---9---7~~----------------| 
|---10---------------10--------8---8--------------------| 
|-8-----------------------------------------------------| 
|-------------------------------------------------------| 
|-------------------------------------------------------| 
play twice 

|------------9p8----------------------------------------| 
|-------11--------11----9h11p9---9---7--6-7p6-----------| 
|---10---------------10--------8---8----------6---------| 
|-8-----------------------------------------------------| 
|-------------------------------------------------------| 
|-------------------------------------------------------| 

|------------9p8----------------------------------------| 
|-------11--------11----9h11p9---9----7~~---------------| 
|---10---------------10--------8---8--6~~---------------| 
|-8-----------------------------------------------------| 
|-------------------------------------------------------| 
|-------------------------------------------------------| 

|------------9p8------------------------8-9p8-----------| 
|-------11--------11----9h11p9---9---7-------9----------| 
|---10---------------10--------8---8--------------------| 
|-8-----------------------------------------------------| 
|-------------------------------------------------------| 
|-------------------------------------------------------| 

|------------9p8----------------------------------------| 
|-------11--------11----9h11p9---9----7~~---------------| 
|---10---------------10--------8---8--6~~---------------| 
|-8-----------------------------------4~~---------------| 
|-------------------------------------------------------| 
|-------------------------------------------------------| 

Dist on 

|------------------------------------------------------------| 
|------------------------------------------------------------| 
|------------------------------------------------------------| 
|----------6-6s11~~~~----------6-6--------------4-6-8-6-4----| 
|-6-6-6-6--4-4s9~~~~---6--6-6--4-4-4-------4-6-8---------8-4-| 
|-8-8-8-8--------------8--8-8------2--4-6-8------------------| 

|------------------------------------------------------------| 
|------------------------14b16-------------------------------| 
|-----------------------------13p12--------------------------| 
|----------6--11s13s11-------------15-------6-6s8------------| 
|-6-6-6-6--4---9s11s9------------------6-6--4-4s6-4~~--------| 
|-8-8-8-8------------------------------8-8--------2~~--------| 

clean 
change between the intro pattern and this as you like...  
|------------9p8----------------------------------------| 
|-------11--------11----9h11p9--9---7-6-7p6-------------| 
|---10---------------10--------8-8--6------6------------| 
|-8---------------------------6-------------------------| 
|-------------------------------------------------------| 
|-------------------------------------------------------| 

|------------9p8----------------------------------------| 
|-------11--------11----9h11p9--9---7-6-7p6-------------| 
|---10---------------10--------8-8--6------6------------| 
|-8---------------------------6-------------------------| 
|-------------------------------------------------------| 
|-------------------------------------------------------| 

Pre solo (not correct but it sounds good) 
|-----------------------------------------------------------------------------| 
|-------------------------9-9-------------------------------------------------| 
|------8-8-10-10----11-11----10-10-11-11-10-10--------------------------------| 
|-8-8-----------8-8----------------------------11-11-8-8-9-9------------------| 
|------------------------------------------------------------9-9-8-8-9-9------| 
|-----------------------------------------------------------------------11-11-| 

|-----------------------------------------------------------------------------| 
|-----------------------------------------------------------------------------| 
|---------------10-10-11-11-10-10-8-8-----------------------------------------| 
|-----11-11-8-8-----------------------11-11-8-8-9-9---------------------------| 
|-9-9-----------------------------------------------9-9-8-8-9-9-11-11-9-9-8-8-| 
|-----------------------------------------------------------------------------| 

|-------------------------------------------------------------------------------| 
|-------------------------------------------------------------------------------| 
|---------------------10-10-11-11-10-10-8-8-------------------------------------| 
|-----------11-11-8-8-----------------------8-8-11-11-9-9-8-8-9-9---------------| 
|-------9-9-------------------------------------------------------9-9-8-8-------| 
|-11-11------------------------------------------------------------------11-11--| 

|-------------------------------------------------------------------------------| 
|---------------------9-9-------------------------------------------------------| 
|---------------11-11----10-10-11-11-10-10--------------------------------------| 
|-----11-11-8-8---------------------------11-11-8-8-9-9-------------------------| 
|-9-9---------------------------------------------------------------------------| 
|-------------------------------------------------------------------------------| 
		  

See also:

tabs Shiny Toy Guns - When Did This Storm Begin tabs Celldweller - The Wings Of Icarus tabs Peaches - Sucker tabs Buckethead - Four Rivers tabs Shiny Toy Guns - Ricoche tabs To Mars and Back Again - Follow the yellow brick road
e-chords

Other versions:

tabs Buckethead - Soothsayer tabs Buckethead - Soothsayer (solo)
auto scroll beats size up size down change color hide chords drawings
tab show chords e-chords YouTube Clip e-chords hide all tabs e-chords go to top tab

share