Buckethead

Oneiric Pool Part 7

Buckethead

tabs

by  GUSTSILVA

save to print version add songbook text version e-mail correct tuner
chordsukulelecavacokeyboardtabbassdrumsharmonicaflute Guitar Pro
close

there isn't a video lesson for this song

chords

Oneiric Pool Part 7

	  		"ONEIRIC POOL PART 7" 
by Buckethead 

tabbed by:    Dropdeee 
tuning:       Standard (E A D G B e)       
video:        https://youtu.be/yQomNpN44pw 

            *** backing track coming soon *** 


   v v                ^ ^         v        v  v        v   
e|------------------|--------------------|----0--------0----------| 
B|------------------|-5-5----------------|----0--------0----------| 
G|-9-9--------------|-7-7---------7-----\|-0--0--------5----------| 
D|-9-9--------------|-7-7---------7-----\|-5-----------5----------| 
A|-7-7--------------|-5-5---------5-----\|-3-----------3----------| 
E|------------------|--------------------|------------------------| 

e|-----||---------------------------------|----------------------------------| 
B|-----||---------------------------------|----------------------------------| 
G|-----||---------------------------------|----------------------------------| 
D|-----||-------------------------5-5-----|---------------------4----4-5-5-7-| 
A|-5h7-||-7---7-----7---7-----7-------7---|-7---7-----7---7--------5---------| 
E|-----||---0---0-0---0---0-0---0-------0-|---0---0-0---0---0-0--------------| 
            *   * *   *   * *   *       *     *   * *   *   * *      * * * * 

e|-------------------------------------------------------------------| 
B|---------------------------------3-3-----------3-3-----------------| 
G|-------------------------5-5-4-4-----5-5-4-4-----------------------| 
D|---------------------------------------------5-----4-4---4-5-5/7-9-| 
A|-7---7-----7---7-----7---------------------------------5-----------| 
E|---0---0-0---0---0-0---0-------------------------------------------| 
     *   * *   *   * *   * * * * * * * * * * * *        

  00:32 
e|----------------------------------|----------------------------------| 
B|----------------------------------|----------------------------------| 
G|----------------------------------|----------------------------------| 
D|-9---9---7-----9-----9------------|-9---9---7-----9-----9------------| 
A|-------------------------10p9-----|-------------------------10p9-----| 
E|---0---0---0-0---0-0---0------0-0-|---0---0---0-0---0-0---0------0-0-| 
     *   *   * *   * *   *      * *     *   *   * *   * *   *      * * 

e|----------------------------------|----------------------------------| 
B|----------------------------------|----------------------------------| 
G|----------------------------------|----------------------------------| 
D|-9---9---7-----9-----9------------|-9---9---7-----9-----9------------| 
A|-------------------------10p9-----|-------------------------10p9-----| 
E|---0---0---0-0---0-0---0------0-0-|---0---0---0-0---0-0---0------0-0-| 
     *   *   * *   * *   *      * *     *   *   * *   * *   *      * * 

e|----------------------------------|----------------------------------| 
B|----------------------------------|----------------------------------| 
G|----------------------------------|----------------------------------| 
D|----------------------------------|----------------------------------| 
A|-7---7---5-----7-----7------------|-7---7---5-----7-----7------------| 
E|---0---0---0-0---0-0---0-8-7~---0-|---0---0---0-0---0-0---0-8-7~---0-| 
     *   *   * *   * *   *        *     *   *   * *   * *   *        * 

e|----------------------------------|-------------------------------------| 
B|----------------------------------|-------------------------------------| 
G|----------------------------------|-------------------------------------| 
D|----------------------------------|-------------------------------------| 
A|-7-------5-----7-----7------------|-----------------------------5/14----| 
E|---0-0-0---0-0---0-0---0-8-7~---0-|-10-8~---0-8-7~---0-10-8~----------0-| 
     * * *   * *   * *   *        *           *        *                 * 

  00:57 
e|----------------------------------------------------------------------------------| 
B|----------------------------------------------------------------------------------| 
G|----------------------------------------------------------------------------------| 
D|----------------------------------------------------------------------------------| 
A|-14---14---14h15p14-12~----12---12h14p12-10~----10---10h12p12-9~----9h10-10p9-7---| 
E|----0----0---------------0----0---------------0----0--------------0-----------0---| 
      *    *               *    *               *    *              * 

e|----------------------------------------------------------------------------------| 
B|----------------------------------------------------------------------------------| 
G|----------------------------------------------------------------------------------| 
D|----------------------------------------------------------------------------------| 
A|-14---14---14h15p14-12~----12---12h14p12-10~----10---10h12p12-9~----9h10-10p9-7---| 
E|----0----0---------------0----0---------------0----0--------------0-----------0---| 
      *    *               *    *               *    *              * 

e|----------------------------------------------------------------------------------| 
B|----------------------------------------------------------------------------------| 
G|----------------------------------------------------------------------------------| 
D|----------------------------------------------------------------------------------| 
A|-14---14---14h15p14-12~----12---12h14p12-10~----10---10h12p12-9~----9h10-10p9-7---| 
E|----0----0---------------0----0---------------0----0--------------0-----------0---| 
      *    *               *    *               *    *              * 

e|---------------------------------------------------------------------------------| 
B|---------------------------------------------------------------------------------| 
G|---------------------------------------------------------------------------------| 
D|---------------------------------------------------------------------------------| 
A|-14---14---14h15p14-12~----12---12h14p12-10~----10---10h12p12-9~----10p9-9\5-5/7-| 
E|----0----0---------------0----0---------------0----0--------------0--------------| 
      *    *               *    *               *    *              * 


 Solo  
  01:23 
e|-------------------------|--------------------------|  
B|-------------------------|--------------------------| 
G|-12-h14~-----------12p11-|11h12---11-11--12-14------|  
D|-------------------------|--------------------------| 
A|-------------------------|--------------------------| 
E|-------------------------|--------------------------| 

e|--------||----------------------------------------------------------|  
B|----15--||-15/17--15------------------------------------------------| 
G|-12-----||--------------------14hbrp12-14-14~---------12\11---/12---| 
D|--------||----------------------------------------------------------| 
A|--------||----------------------------------------------------------| 
E|--------||----------------------------------------------------------| 

e|-----------------------------|---------------------------------|-------------------------------------------| 
B|-----------------------------|---------------------------------|-------------------------------------------| 
G|-12-12-12-11-\-9-------------|-12-12--12-11--12/14~--------12--|-12-12-12-11-------------7-7-7-7~-----\----| 
D|-------------------9----9--9-|---------------------------------|---------------9-------9-------------------| 
A|-----------------------------|---------------------------------|-------------------------------------------| 
E|-----------------------------|---------------------------------|-------------------------------------------| 


  01:49 
e|-------------------------10-10-10-10-----------------|  
B|----12-12-12-12~-------------------------------------| 
G|--------------------------------------12-12-12~------| 
D|-----------------------------------------------------| 
A|-----------------------------------------------------| 
E|-----------------------------------------------------| 

e|-------------------------10-10-10-10---------g12/15--14-----| 
B|----12-12-12-12~--------------------------------------------| 
G|------------------------------------------------------------| 
D|------------------------------------------------------------| 
A|------------------------------------------------------------| 
E|------------------------------------------------------------| 

e|-----------------------15-14-----------------15--15-| cont. 
B|-12h15--15--15~---------------12~--------12---------| below.. 
G|----------------------------------------------------| 
D|----------------------------------------------------| 
A|----------------------------------------------------| 
E|----------------------------------------------------| 

e|-15--15-14--------14h15-15h17-17---17---17---17-17-17-17-17---17---17--| 
B|-----------------------------------------------------------------------| 
G|-----------------------------------------------------------------------| 
D|-----------------------------------------------------------------------| 
A|-----------------------------------------------------------------------| 
E|-----------------------------------------------------------------------| 

  02:14 
e|-17-------15-15p14-14----|----17-17-------15-15p14-|-14-------17-17----15-|-15-14-14-------19-19----| 
B|----17-17-------------17-|-17-------17-17----------|----17-17-------17----|----------17-17-------17-| 
G|-------------------------|-------------------------|----------------------|-------------------------| 
D|-------------------------|-------------------------|----------------------|-------------------------| 
A|-------------------------|-------------------------|----------------------|-------------------------| 
E|-------------------------|-------------------------|----------------------|-------------------------| 

e|----15-15-14-14-------17-|-17-------15-15-14-14----|----19-19-------15-15-14-|-14----14-------19-19----| 
B|-17-------------17-17----|----17-17-------------17-|-17-------17-17----------|----17----17-17-------17-| 
G|-------------------------|-------------------------|-------------------------|-------------------------| 
D|-------------------------|-------------------------|-------------------------|-------------------------| 
A|-------------------------|-------------------------|-------------------------|-------------------------| 
E|-------------------------|-------------------------|-------------------------|-------------------------| 

e|-19-------20-20-19-19----|----15-15-14-14-------15-|-15-14-14-12-12----------|-------------------------| 
B|----17-17-------------17-|-17-------------17-17----|----------------15-15-12-|-12----------------------| 
G|-------------------------|-------------------------|-------------------------|----14-14-12-12-11-11~---| 
D|-------------------------|-------------------------|-------------------------|-------------------------| 
A|-------------------------|-------------------------|-------------------------|-------------------------| 
E|-------------------------|-------------------------|-------------------------|-------------------------| 

  02:33 
e|-------------------------------------------------| 
B|-------------------------------------------------| 
G|-11hbr-hbr-hbr-9-----\---4/7--7~----9------------| 
D|-------------------------------------g7/9~-------| 
A|-------------------------------------------------| 
E|-------------------------------------------------| 

e|-------||--------------------------------------------10~----| cont. 
B|-------||-8-8~--8-8~-----\------------------------8---------| below.. 
G|-------||--------------------------7-7h9~-------9-----------|    
D|-9-9-9-||----------------------9-9--------------------------| 
A|-------||---------------------------------------------------| 
E|-------||---------------------------------------------------| 

e|------------10h12----------10h12----------------------------| 
B|-------------------12~--------------------------------------| 
G|----------------------------------12~----12~-------12-12-12-| 
D|------------------------------------------------------------| 
A|------------------------------------------------------------| 
E|------------------------------------------------------------| 

e|-10h12---------------------------10h12---------------------------------| 
B|--------12---12~--------12-12-12---------------------------------------| 
G|----------------------------------------12~-------12-12-12-12-12-12-12-| 
D|-----------------------------------------------------------------------| 
A|-----------------------------------------------------------------------| 
E|-----------------------------------------------------------------------| 

e|-10h12--------------------------------10h12--------------------------------| 
B|--------12---12~------12-12-12---12----------------------------------------| 
G|---------------------------------------------12~------12---12-\------------| 
D|---------------------------------------------------------------------------| 
A|-------------------------------------------------------------------\-/-\---| 
E|-------------------------------------------------------------------\-/-\---| 

  03:05 
e|-----------------------------------15-15-15---17-14---14-14-14-14qbr-qb14rb--| 
B|-15fb~----15~---15rb---------------------------------------------------------| 
G|----------------------12-14-14/16--------------------------------------------| 
D|-----------------------------------------------------------------------------| 
A|-----------------------------------------------------------------------------| 
E|-----------------------------------------------------------------------------| 

e|--------------------------------------------15-15---15-17-14-----| 
B|-15fb---15-15-15~-----rb-----------------------------------------| 
G|-----------------------------12-14-14/16-------------------------| 
D|-----------------------------------------------------------------| 
A|-----------------------------------------------------------------| 
E|-----------------------------------------------------------------| 

e|----------||-22-22-22~--22~----22\-----------22-22-22-24-19---19-19-19-\--| 
B|-17-17-17-||--------------------------------------------------------------| 
G|----------||--------------------------------------------------------------| 
D|----------||--------------------------------------------------------------| 
A|----------||-------------------------//-\\--------------------------------| 
E|----------||-------------------------//-\\--------------------------------| 

e|-22-22-22-22-22-22~---22-22\---------22-22-24-19-19-19-19-19------17~--17-17~-----------| 
B|-------------------------------------------------------------19~------------------------| 
G|----------------------------------------------------------------------------------------| 
D|----------------------------------------------------------------------------------------| 
A|--------------------------------------------------------------------------------/-\-/-\-|  
E|----------------------------------------------------------------------------------------| 

  03:31 
e|--------------------------------------------------------------------| 
B|--------------------------------------------------------------------| 
G|-12~~-------12-12~--12-12\11-11h12-12h14-14/16~-----16h19-19~-----\-| 
D|--------------------------------------------------------------------| 
A|--------------------------------------------------------------------| 
E|--------------------------------------------------------------------| 

e|-----------------------------------------------------------------------------| 
B|-----------------------------------------------------------------15-15---17--| 
G|-12--12~------12-12-12--12--12\11-11/12-14~------14-14-/16-16-16-------------| 
D|-----------------------------------------------------------------------------| 
A|-----------------------------------------------------------------------------| 
E|-----------------------------------------------------------------------------| 

e|----------------------------------------------------------------| 
B|-17~---------17~---------17-------------------------------------|  
G|-------16~---------14~------------------------------------------| 
D|-----------------------------17\16--16-16-16-16-17--17--17~-----| 
A|----------------------------------------------------------------| 
E|----------------------------------------------------------------| 

e|-----||---------------------------------------------------------------------| 
B|-----||-17--------17--------------------------------------------------------| 
G|-16--||------14-------------------------------------------------------------| 
D|-----||----------------17---17-17--16--16--17-17-17--17-17-17-17-17-17--16--| 
A|-----||---------------------------------------------------------------------| 
E|-----||---------------------------------------------------------------------| 

  03:57 
e|--------------------------------|-------------------------|-----------------------|--------------------| 
B|--------------------------------|-------------------------|-----------------------|--------------------| 
G|--------------------------------|-------------------------|-----------------------|--------------------| 
D|-14--14-17~------(17-17)17--16--|------------------17--16-|-14---14~-------17--16-|--------------------| 
A|--------------------------------|-14--14-17---------------|-----------------------|-14---17~-----------| 
E|--------------------------------|-------------------------|-----------------------|--------------\\-//-| 

e|----------------------------------------------------------------| 
B|-19hb--19-19-19-19-19---19rb--19---17------15~----15h17---------| 
G|----------------------------------------16---------------16~----|  
D|----------------------------------------------------------------| 
A|----------------------------------------------------------------| 
E|----------------------------------------------------------------|  

e|-----------------------------|------------------------------------| 
B|-19hb-19--19---19rb--19~--17-|-15--15--15h17----------------------| 
G|-----------------------------|------------------------------------| 
D|-----------------------------|----------------17--17-17~--17~--17-| 
A|-----------------------------|------------------------------------|  
E|-----------------------------|------------------------------------| 

e|------------------------------|-----------------------------------| 
B|-19hb--19--19~---19rb-17~--17-|-15--15--15h17---------------------| 
G|------------------------------|-----------------------------------| 
D|------------------------------|-----------------17--17-17~--17~---| 
A|------------------------------|-----------------------------------| 
E|------------------------------|-----------------------------------| 

  04:28 
e|---------------------------------|--------------------------------------| 
B|-19hb--19-19-19--19-19rb-19---17-|-15--15--15h17------------------------| 
G|---------------------------------|--------------------------------------| 
D|---------------------------------|-----------------17--17-17---17-16----| 
A|---------------------------------|--------------------------------------| 
E|---------------------------------|--------------------------------------| 

e|-----------------------------|----------------------------| 
B|-----------------------------|----------------------------| 
G|-----------------------------|-------16~------------------| 
D|-14~---17~-------17-17-16-16-|-14------------------17-16--| 
A|-----------------------------|----------------------------| 
E|-----------------------------|----------------------------| 

e|--------------------------------|-----------------------------------------| 
B|--------------------------------|-----------------15-15-15-17--19-hpbr19--| 
G|--------------------------------|---------16-16-16------------------------| 
D|-14----14~---14--14-14----17-16-|-14--14----------------------------------| 
A|--------------------------------|-----------------------------------------| 
E|--------------------------------|-----------------------------------------| 

  04:48 
e|--------------------------------------------|-------------------------------------| 
B|-19hbr-17-19-17-----------------------------|-------------------------------------| 
G|-----------------16-19-16-19-16~--14-12-11--|-11-12-11-12-12/14--14/16--16~~------| 
D|--------------------------------------------|-------------------------------------| 
A|--------------------------------------------|-------------------------------------| 
E|--------------------------------------------|-------------------------------------| 

e|-------------------------------------------------------------------------------------| 
B|-19-19-17----17--------------------------------------------17--15fb--15~~------------| 
G|----------19------16-19-19-16-14---12h14p12-11-12-14fb--14-------(hold)--------------| 
D|----------------------------------------------------(hold)---------------------------| 
A|-----------------------------------------------------------------------------//-\\---| 
E|-----------------------------------------------------------------------------//--\\--| 

e|-------------------------|-------------------------|-------------------------|-------------------------| 
B|--------------------15---|-------------------------|-------------------15----|-------------------------| 
G|--------------16-------17|-16-14-14----------------|-------------16-------17-|-16-14-------------------| 
D|-14~-16-17-------17------|----------17-16~---16-14-|-14-16-17-14----17-------|-------17-16-14----------| 
A|-----------17------------|-------------------------|-------------------------|----------------17-14-17-| 
E|-------------------------|-------------------------|-------------------------|-------------------------| 
                                                     PM-----------| 
  05:07 
e|-------------------------|-------------------------|-------------------------|-------------------------| 
B|-------(all-muted)-------|-------(all-muted)-------|------(all-muted)--------|-------------------------| 
G|-------------------------|-------------------------|-------------------------|-------------16----------| 
D|-14----------------------|-------------------------|-------------------------|-------16-14----14-14~---| 
A|----17-14-------------17-|-14----------------------|-------------------17-15-|-14-15-------------------| 
E|----------17-15-14-15----|----17-15-14-15-14-12-10-|-12-14-15-14-14-15-------|-------------------------| 
                                                                               PM-----------| 

e|-------------------------|-------------------------|-------------------------|---------------------------| 
B|-------------------------|----15-------------------|-------------------------|----15-------15fb-15-------| 
G|-------------------14----|-------17-16-14----------|-------------------14----|-------17-16---------17-16-| 
D|-14-16-17-14-16-17----16-|-17-------------17-16-17-|-14-16-17-14-16-17----16-|-17------------------------| 
A|-------------------------|-------------------------|-------------------------|---------------------------| 
E|-------------------------|-------------------------|-------------------------|---------------------------| 
PM-----------------------------|                     PM----------------------------| 

e|-------------------------|-------------------------|-------------------------|----------------------14-| 
B|-------------------------|----15-------------------|----------------------15-|-------15-17-17----17----| 
G|-------------------14----|-------17-16-14-16-14----|-------------------------|-17-16----------16-------|  
D|-14-16-17-16-16-17----16-|-17-------------------17-|-16-14-16-17-16-16-16----|-------------------------| 
A|-------------------------|-------------------------|-------------------------|-------------------------| 
E|-------------------------|-------------------------|-------------------------|-------------------------| 

  05:26 
e|-15-14-15-14-15-14-15-14-|-15-17-15-17-19-17-19-20-|-20fbr---20-19-20-19----|------------------------------| 
B|-------------------------|-------------------------|---------------------20-|-20-19-19p17-17~---17p15-17---| 
G|-------------------------|-------------------------|------------------------|------------------------------| 
D|-------------------------|-------------------------|------------------------|------------------------------| 
A|-------------------------|-------------------------|------------------------|------------------------------| 
E|-------------------------|-------------------------|------------------------|------------------------------| 



************************************ 

| g   Grace note 
|(n)  Ghost note 
| h   Hammer-on 
| p   Pull-off 
| r   Release 
| b   Bend 
| qb  Quarter-Bend 
| hb  Half-Bend 
| fb  Full-Bend 
| rb  Release Bend 
| pbr Pre-bend release 
| /   Slide up 
| \   Slide down 
| v   Down-stroke 
| ^   Up-stroke 
| ~   Vibrato 
| PM  Palm mute 
| *   also Palm Mute 

************************************ 
		  

Full key step upFull key step up
Half key step upHalf key step up
Half key step downHalf key step down
Full key step downFull key step down
hide glossary

See also:

tabs Shiny Toy Guns - When Did This Storm Begin tabs Celldweller - The Wings Of Icarus tabs Peaches - Sucker tabs Buckethead - Four Rivers tabs Shiny Toy Guns - Ricoche tabs To Mars and Back Again - Follow the yellow brick road
e-chords

Other versions:

tabs Buckethead - Oneiric Pool Part 7
auto scroll beats size up size down change color hide chords drawings
tab show chords e-chords YouTube Clip e-chords hide all tabs e-chords go to top tab

share