Buckethead

Ascending Soul

Buckethead

tabs

by  CARLLUZ

save to print version add songbook text version e-mail correct tuner
chordsukulelecavacokeyboardtabbassdrumsharmonicaflute Guitar Pro
close

there isn't a video lesson for this song

chords

Ascending Soul

	  		

Tempo= 140 
4/4 



    E   E   E   E   E   E   E   E      E   E   E   E   E   E   E   E     E  E  E  E  Q    Q      
|--14------------------------------|----------------------------------|------------------------| 
|------17--16----------------------|----------------------------------|------------------------| 
|--------------16------------------|----------------------------------|-----8--8--8--8----8----| 
|------------------16--14--13------|--16--13--------------------------|-----9--9--9--9----9----| 
|------------------------------14--|----------14----------------------|-----9--9--9--9----9----| 
|----------------------------------|--------------14--16--14--11--11--|--7--7--7--7--7----7----| 
|----------------------------------|----------------------------------|--0-----------0---------| 


   E  E  E  E  Q    Q        E   E   E   E   E   E   E   E      E   E   E   E   E   E   E   E    
|------------------------|--14------------------------------|----------------------------------| 
|------------------------|------17--16----------------------|----------------------------------| 
|--L--8--8--8--8----8----|--------------16------------------|----------------------------------| 
|--L--9--9--9--9----9----|------------------16--14--13------|--16--14--13----------------------| 
|--L--9--9--9--9----9----|------------------------------14--|--------------14------------------| 
|--L--7--7--7--7----7----|----------------------------------|------------------14--12--11--12--| 
|-----0--------0---------|----------------------------------|----------------------------------| 


   E  E  E  E  Q    Q       E  E  E  E  Q    Q        E   S   S  S  S   S  S  S   S  S  S   S  S  S   S   
|------------------------|------------------------|-----------------------------------------------------| 
|------------------------|------------------------|-----------------------------------------------------| 
|-----8--8--8--8----8----|--L--8--8--8--8----8----|------18p-16----16h-20----20p-18----18p-16----16h-21-| 
|-----9--9--9--9----9----|--L--9--9--9--9----9----|--16---------16--------16--------16--------16--------| 
|-----9--9--9--9----9----|--L--9--9--9--9----9----|-----------------------------------------------------| 
|--7--7--7--7--7----7----|--L--7--7--7--7----7----|-----------------------------------------------------| 
|--0---------------------|--0---------------------|-----------------------------------------------------| 


    S  S   S  S  S   S  S  S   S  S  S   S  S  S   E      E   S   S  S  S   S  S  S   S  S  S   S  S  S   S   
|-----------------------------------------------------|-----------------------------------------------------| 
|-----------------------------------------------------|-----------------------------------------------------| 
|-----21p-20----20p-18----18p-16----16h-18----18p-16--|------15p-11----11h-15----15h-16----16p-15----15p-13-| 
|--16--------16--------16--------16--------16---------|--11---------11--------11--------11--------11--------| 
|-----------------------------------------------------|-----------------------------------------------------| 
|-----------------------------------------------------|-----------------------------------------------------| 
|-----------------------------------------------------|-----------------------------------------------------| 


    S  S   S  S  S   S  S  S   S  S  E   Q       E   S   S S  S  S S S   S S  S   S S  S   S   
|---------------------------------------------|----------------------------------------------| 
|---------------------------------------------|----------------------------------------------| 
|-----13p-11----11h-13----13h-15----15--------|-----13p-11---11p-9---9h-11---11h-13---13p-11-| 
|--11--------11--------11--------11-----11----|--9---------9-------9-------9--------9--------| 
|---------------------------------------------|----------------------------------------------| 
|---------------------------------------------|----------------------------------------------| 
|---------------------------------------------|----------------------------------------------| 


   S  S  S S S   S S  S  S S E  Q         E   S   S  S  S   S  S  S   S  S  S   S  S  S   S   
|-------------------------------------|-----------------------------------------------------| 
|-------------------------------------|-----------------------------------------------------| 
|----11p-9---9h-11---11p-9---9--------|------18p-16----16h-20----20p-18----18p-16----16h-21-| 
|--9-------9-------9-------9----9S----|--16---------16--------16--------16--------16--------| 
|-------------------------------------|-----------------------------------------------------| 
|-------------------------------------|-----------------------------------------------------| 
|-------------------------------------|-----------------------------------------------------| 


    S  S   S  S  S   S  S  S   S  S  S   S  S  S   E      E   S   S  S  S   S  S  S   S  S  S   S  S  S   S   
|-----------------------------------------------------|-----------------------------------------------------| 
|-----------------------------------------------------|------19p-16----16h-17----17p-16----16h-19----19p-16-| 
|-----21p-20----20p-18----18p-16----16h-18----18p-16--|--16---------16--------16--------16--------16--------| 
|--16--------16--------16--------16--------16---------|-----------------------------------------------------| 
|-----------------------------------------------------|-----------------------------------------------------| 
|-----------------------------------------------------|-----------------------------------------------------| 
|-----------------------------------------------------|-----------------------------------------------------| 


    S  S   S  S  S   S  S  S   S  S  S   S  S  S   E      E   S   S  S  S   S  S  S   S  S  S   S  S  S   S   
|-----------------------------------------------------|-----------------------------------------------------| 
|-----16h-21----21p-16----16h-19----19p-16----16h-19--|------17p-16----16p-14----14h-17----17p-16----16h-19-| 
|--16--------16--------16--------16--------16---------|--13---------13--------13--------13--------13--------| 
|-----------------------------------------------------|-----------------------------------------------------| 
|-----------------------------------------------------|-----------------------------------------------------| 
|-----------------------------------------------------|-----------------------------------------------------| 
|-----------------------------------------------------|-----------------------------------------------------| 


    S  S   S  S  S   S  S  S   S  S  S   S  S  S   E      E   S   S  S  S   S  S  S   S  S  S   S  S  S   S   
|-----------------------------------------------------|-----------------------------------------------------| 
|-----19p-17----17p-16----16p-14----14h-16----16p-14--|-----------------------------------------------------| 
|--13--------13--------13--------13--------13---------|------20p-16----16h-18----18p-16----16h-20----20p-18-| 
|-----------------------------------------------------|--16---------16--------16--------16--------16--------| 
|-----------------------------------------------------|-----------------------------------------------------| 
|-----------------------------------------------------|-----------------------------------------------------| 
|-----------------------------------------------------|-----------------------------------------------------| 


    S  S   S  S  S   S  S  S   S  S  S   S  Q        E   S   S  S  S   S  S  S   S  S  S   S  S  S   S   
|------------------------------------------------|-----------------------------------------------------| 
|------------------------------------------------|-----------------------------------------------------| 
|-----18p-16----16h-18----18p-16----18h-20--L----|------15p-11----11h-15----15h-16----16p-15----15p-13-| 
|--16--------16--------16--------16--------------|--11---------11--------11--------11--------11--------| 
|------------------------------------------------|-----------------------------------------------------| 
|------------------------------------------------|-----------------------------------------------------| 
|------------------------------------------------|-----------------------------------------------------| 


    S  S   S  S  S   S  S  S   S  S  S   S  S  S   E     E   S  S S S   S S  S  S S S   S S  E    
|-----------------------------------------------------|-----------------------------------------| 
|-----------------------------------------------------|-----------------------------------------| 
|-----13p-11----11h-13----13h-15----15p-13----13p-11--|-----13p-9---9h-11---11p-9---9h-13---13--| 
|--11--------11--------11--------11--------11---------|--9--------9-------9-------9-------9-----| 
|-----------------------------------------------------|-----------------------------------------| 
|-----------------------------------------------------|-----------------------------------------| 
|-----------------------------------------------------|-----------------------------------------| 


   S  S   S S  S  S S S   S S  S  S S E.      E   S   S  S  S   S  S  S   S  S  S   S  S  S   S   
|-----------------------------------------|-----------------------------------------------------| 
|-----------------------------------------|-----------------------------------------------------| 
|--L-13p-11---11p-9---9h-11---11p-9---9---|------20p-16----16h-18----18p-16----16h-20----20p-16-| 
|-----------9-------9-------9-------9-----|--16---------16--------16--------16--------16--------| 
|-----------------------------------------|-----------------------------------------------------| 
|-----------------------------------------|-----------------------------------------------------| 
|-----------------------------------------|-----------------------------------------------------| 


    S  S   S  S  S   S  S  S   S  S  S   S  Q        E   S   S  S  S   S  S  S   S  S  S   S  S  S   S   
|------------------------------------------------|-----------------------------------------------------| 
|------------------------------------------------|------19p-16----16h-17----17p-16----16h-21----21p-16-| 
|-----18p-16----16h-18----18p-16----18h-20--L----|--16---------16--------16--------16--------16--------| 
|--16--------16--------16--------16--------------|-----------------------------------------------------| 
|------------------------------------------------|-----------------------------------------------------| 
|------------------------------------------------|-----------------------------------------------------| 
|------------------------------------------------|-----------------------------------------------------| 


    S  S   S  S  S   S  S  S   S  S  S   S  S  S   E      S  S   S   S  S  S   S  S  S   S  S  S   S  S  S   S   
|-----------------------------------------------------|--------------------------------------------------------| 
|-----16h-19----19p-16----16h-17----17p-16----16h-17--|-----16h-17p-16----16h-19----19p-17----17p-16----16h-17-| 
|--16--------16--------16--------16--------16---------|--15------------15--------15--------15--------15--------| 
|-----------------------------------------------------|--------------------------------------------------------| 
|-----------------------------------------------------|--------------------------------------------------------| 
|-----------------------------------------------------|--------------------------------------------------------| 
|-----------------------------------------------------|--------------------------------------------------------| 


    S  S   S  S  S   S  S  S   S  S  S   S  S  S   E      E   S   S  S  S   S  S  S   S  S  S   S  S  S   S   
|-----------------------------------------------------|-----------------------------------------------------| 
|-----17p-16----16h-17----17p-16----16h-17----17p-16--|------16p-12----12h-17----17p-16----16p-12----12h-14-| 
|--15--------15--------15--------15--------15---------|--13---------13--------13--------13--------13--------| 
|-----------------------------------------------------|-----------------------------------------------------| 
|-----------------------------------------------------|-----------------------------------------------------| 
|-----------------------------------------------------|-----------------------------------------------------| 
|-----------------------------------------------------|-----------------------------------------------------| 


    S  S   S  S  S   S  S  S   S  S  S   S  S  S   E      E   S   S  S  S   S  S  S   S  S  S   S  S  S   S   
|-----------------------------------------------------|-----------------------------------------------------| 
|-----14p-12----12h-16----16p-12----12h-16----16p-12--|-----------------------------------------------------| 
|--13--------13--------13--------13--------13---------|------16p-15----15h-18----18p-15----15h-16----16p-15-| 
|-----------------------------------------------------|--16---------16--------16--------16--------16--------| 
|-----------------------------------------------------|-----------------------------------------------------| 
|-----------------------------------------------------|-----------------------------------------------------| 
|-----------------------------------------------------|-----------------------------------------------------| 


    S  S   S  S  S   S  S  S   S  S  S   S  S  S   E      E   S   S  S  S   S  S  S   S  S  S   S  S  S   S   
|-----------------------------------------------------|-----------------------------------------------------| 
|-----------------------------------------------------|-----------------------------------------------------| 
|-----15h-16----16p-15----18p-16----16p-15----15h-16--|------15p-11----11h-15----15h-16----15p-13----13p-11-| 
|--16--------16--------16--------16--------16---------|--11---------11--------11--------11--------11--------| 
|-----------------------------------------------------|-----------------------------------------------------| 
|-----------------------------------------------------|-----------------------------------------------------| 
|-----------------------------------------------------|-----------------------------------------------------| 


   E   S  S S S   S S  S   S S  S  S S E     E   S  S S S   S S  S  S S S   S S  S  S   
|-----------------------------------------|-------------------------------------------| 
|-----------------------------------------|-------------------------------------------| 
|-----13p-9---9h-11---11h-13---11p-9---9--|-------------------------------------------| 
|--9--------9-------9--------9-------9----|--9--13p-9-9-9h-13-9-13p-9-9-9h-13-9-13p-9-| 
|-----------------------------------------|-------------------------------------------| 
|-----------------------------------------|-------------------------------------------| 
|-----------------------------------------|-------------------------------------------| 


   E   S  S S S   S S E  E    Q         E   S   S  S  S   S  S  S   S  S  S   S  S  S   S   
|-----------------------------------|-----------------------------------------------------| 
|-----------------------------------|------19p-16----16h-17----17p-16----16h-21----21p-16-| 
|----------------------------11/----|--16---------16--------16--------16--------16--------| 
|--9--13p-9-9-9h-13-9-9--L/---------|-----------------------------------------------------| 
|-----------------------------------|-----------------------------------------------------| 
|-----------------------------------|-----------------------------------------------------| 
|-----------------------------------|-----------------------------------------------------| 


    S  S   S  S  S   S  S  S   S  S  S   S  S  S   E      S  S   S   S  S  S   S  S  S   S  S  S   S  S  S   S   
|-----------------------------------------------------|--------------------------------------------------------| 
|-----16h-19----19p-16----16h-17----17p-16----16h-17--|-----16h-17p-16----16h-19----19p-17----17p-16----16h-17-| 
|--16--------16--------16--------16--------16---------|--15------------15--------15--------15--------15--------| 
|-----------------------------------------------------|--------------------------------------------------------| 
|-----------------------------------------------------|--------------------------------------------------------| 
|-----------------------------------------------------|--------------------------------------------------------| 
|-----------------------------------------------------|--------------------------------------------------------| 


    S  S   S  S  S   S  S  S   S  S  S   S  S  S   E      E   S   S  S  S   S  S  S   S  S  S   S  S  S   S   
|-----------------------------------------------------|-----------------------------------------------------| 
|-----17p-16----16h-17----17p-16----16h-17----17p-16--|------16p-12----12h-14----14p-12----12h-16----16h-17-| 
|--15--------15--------15--------15--------15---------|--13---------13--------13--------13--------13--------| 
|-----------------------------------------------------|-----------------------------------------------------| 
|-----------------------------------------------------|-----------------------------------------------------| 
|-----------------------------------------------------|-----------------------------------------------------| 
|-----------------------------------------------------|-----------------------------------------------------| 


    S  S   S  S  S   S  S  S   S  S  S   S  S  S   E      E   S   S  S  S   S  S  S   S  S  S   S  S  S   S   
|-----------------------------------------------------|-----------------------------------------------------| 
|-----17p-16----16p-12----12h-14----14p-12----12h-14--|------12p-11----11h-14----14p-11----11h-12----12p-11-| 
|--13--------13--------13--------13--------13---------|--11---------11--------11--------11--------11--------| 
|-----------------------------------------------------|-----------------------------------------------------| 
|-----------------------------------------------------|-----------------------------------------------------| 
|-----------------------------------------------------|-----------------------------------------------------| 
|-----------------------------------------------------|-----------------------------------------------------| 


    S  S   S  S  S   S  S  S   S  S  S   S  S  S   E     E   S  S S S   S S  S  S S S   S S  S  S   
|-----------------------------------------------------|-------------------------------------------| 
|-----11h-12----12p-11----11h-14----14p-11----11h-14--|-----11p-9---9h-12---12p-9---9h-11---11p-9-| 
|--11--------11--------11--------11--------11---------|--9--------9-------9-------9-------9-------| 
|-----------------------------------------------------|-------------------------------------------| 
|-----------------------------------------------------|-------------------------------------------| 
|-----------------------------------------------------|-------------------------------------------| 
|-----------------------------------------------------|-------------------------------------------| 


   S S   S S  S  S S S   S S  S  S S S   E      S  S   S   S  S  S   S  S  S   S  S  S   Q       
|-------------------------------------------|-------------------------------------------------| 
|----9h-12---12p-9---9h-11---11p-9---9h-11--|-------------------------------------------------| 
|--9-------9-------9-------9-------9--------|-----13h-15p-13----13h-16----16p-13----13h-16----| 
|-------------------------------------------|--13------------13--------13--------13-----------| 
|-------------------------------------------|-------------------------------------------------| 
|-------------------------------------------|-------------------------------------------------| 
|-------------------------------------------|-------------------------------------------------| 


    E   S   S  S  S   S  S  S   S  S  S   S  S  S   S    E   S  S S S   S S  S  S S S   S S  E    
|-----------------------------------------------------|-----------------------------------------| 
|-----------------------------------------------------|-----------------------------------------| 
|------15p-11----11h-15----15p-11----11h-15----15p-11-|-----13p-9---9h-13---13p-9---9h-13---13--| 
|--11---------11--------11--------11--------11--------|--9--------9-------9-------9-------9-----| 
|-----------------------------------------------------|-----------------------------------------| 
|-----------------------------------------------------|-----------------------------------------| 
|-----------------------------------------------------|-----------------------------------------| 


   E   S  S S S   S S  S  S S S   S S  S  S    E   S  S S S   S S  S  S S S   S S  S  S   
|-------------------------------------------|-------------------------------------------| 
|-------------------------------------------|-------------------------------------------| 
|-----13p-9---9h-13---13p-9---9h-13---13p-9-|-------------------------------------------| 
|--9--------9-------9-------9-------9-------|--9--13p-9-9-9h-13-9-13p-9-9-9h-13-9-13p-9-| 
|-------------------------------------------|-------------------------------------------| 
|-------------------------------------------|-------------------------------------------| 
|-------------------------------------------|-------------------------------------------| 


   S S   S S  Q     Q     Q        E   S   S S  S   S S  S   S S  S   S S  S   S   
|-------------------------------|------------------------------------------------| 
|-------------------------------|------------------------------------------------| 
|-------------------------------|------------------------------------------------| 
|--9-9h-13-9-13----13-----L/----|------------------------------------------------| 
|------------------14-----L/----|------------------------------------------------| 
|-------------------------------|-----19h-21---21h-23---23p-21---21p-19---19p-18-| 
|-------------------------------|--0---------0--------0--------0--------0--------| 


   S  S   S S  S   S S  S   S S  S   S S  E.     S  S   S   S S  S   S S  S   S S  S   S S  S   S   
|---------------------------------------------|---------------------------------------------------| 
|---------------------------------------------|---------------------------------------------------| 
|---------------------------------------------|---------------------------------------------------| 
|---------------------------------------------|---------------------------------------------------| 
|---------------------------------------------|---------------------------------------------------| 
|----18p-16---16p-14---14h-16---16h-18---14---|----19h-21p-19---21h-23---23p-21---21p-19---19p-18-| 
|--0--------0--------0--------0--------0------|--0------------0--------0--------0--------0--------| 


   S  S   S S  S   S S  S   S S  S   S S  E.     E   S   S S  S   S S  S   S S  S   S S  E    
|---------------------------------------------|---------------------------------------------| 
|---------------------------------------------|---------------------------------------------| 
|---------------------------------------------|---------------------------------------------| 
|---------------------------------------------|---------------------------------------------| 
|---------------------------------------------|-----11h-13---13h-14---14p-13---13p-11---11--| 
|----18p-16---16p-14---14h-16---16h-18---14---|--0---------0--------0--------0--------0-----| 
|--0--------0--------0--------0--------0------|---------------------------------------------| 


   E   S   S S  S   S S  S   S S  S   S S  S   S    E   S   S S  S   S S  S   S S  S   S S  S   S   
|------------------------------------------------|------------------------------------------------| 
|------------------------------------------------|------------------------------------------------| 
|------------------------------------------------|------------------------------------------------| 
|------------------------------------------------|------------------------------------------------| 
|-----11h-13---13h-14---14p-13---13p-11---11h-13-|------------------------------------------------| 
|--0---------0--------0--------0--------0--------|-----19h-21---21h-23---23p-21---21p-19---19p-18-| 
|------------------------------------------------|--0---------0--------0--------0--------0--------| 


   S  S   S S  S   S S  S   S S  S   S S  E.     S  S   S   S S  S   S S  S   S S  S   S S  S   S   
|---------------------------------------------|---------------------------------------------------| 
|---------------------------------------------|---------------------------------------------------| 
|---------------------------------------------|---------------------------------------------------| 
|---------------------------------------------|---------------------------------------------------| 
|---------------------------------------------|---------------------------------------------------| 
|----18p-16---16p-14---14h-16---16h-18---14---|----19h-21p-19---21h-23---23p-21---21p-19---19p-18-| 
|--0--------0--------0--------0--------0------|--0------------0--------0--------0--------0--------| 


   S  S   S S  S   S S  S   S S  S   S S  E.     S  S   S   S S  S   S S  S   S S  S   S S  S   S   
|---------------------------------------------|---------------------------------------------------| 
|---------------------------------------------|---------------------------------------------------| 
|---------------------------------------------|---------------------------------------------------| 
|---------------------------------------------|---------------------------------------------------| 
|---------------------------------------------|---------------------------------------------------| 
|----18p-16---16p-14---14h-16---16h-18---14---|----19h-21p-19---21h-23---23p-21---21h-23---19h-21-| 
|--0--------0--------0--------0--------0------|--0------------0--------0--------0--------0--------| 


   S  S   S S  S   S S  S   S S  E  S  E.     S S   S   S S  S   S S  S   S S  S   S S  E    
|------------------------------------------|-----------------------------------------------| 
|------------------------------------------|-----------------------------------------------| 
|------------------------------------------|-----------------------------------------------| 
|------------------------------------------|-----------------------------------------------| 
|------------------------------------------|----9h-11h-13---13h-14---14p-13---13p-11---11--| 
|----16h-18---18p-16---16p-14---14----14---|--0-----------0--------0--------0--------0-----| 
|--0--------0--------0--------0-----0------|-----------------------------------------------| 


   E   S   S S  S   S S  S   S S  S   S S  E     E   S   S S  S   S S  S   S S  S   S S  S   S   
|---------------------------------------------|------------------------------------------------| 
|---------------------------------------------|------------------------------------------------| 
|---------------------------------------------|------------------------------------------------| 
|---------------------------------------------|------------------------------------------------| 
|-----14h-16---16p-14---14p-13---13p-11---11--|------------------------------------------------| 
|--0---------0--------0--------0--------0-----|-----19h-21---21h-23---23p-21---21p-19---19p-18-| 
|---------------------------------------------|--0---------0--------0--------0--------0--------| 


   S  S   S S  S   S S  S   S S  S   S S  E.     E   S  S S  S  S  S  S   S  S   S   S  S   S   S   
|---------------------------------------------|---------------------------------------------------| 
|---------------------------------------------|---------------------------------------------------| 
|---------------------------------------------|---------------------------------------------------| 
|---------------------------------------------|---------------------------------------------------| 
|---------------------------------------------|--6---6h-7----7h-9-----9h-11-----11h-13-----13h-14-| 
|----18p-16---16p-14---14h-16---16h-18---14---|--7S-------9S------11S-------12S--------14S--------| 
|--0--------0--------0--------0--------0------|---------------------------------------------------| 


    S   S   S  S   S   S  S   S  S  S  S  S S S  E     E   S  S S  S  S  S  S   S  S   S   S  S   S   S   
|---------------------------------------------------|---------------------------------------------------| 
|---------------------------------------------------|---------------------------------------------------| 
|---------------------------------------------------|---------------------------------------------------| 
|---------------------------------------------------|---------------------------------------------------| 
|------14p-13-----13p-11-----11p-9-----9p-7---7p-6--|--6---6h-7----7h-9-----9h-11-----11h-13-----13h-14-| 
|--16S--------14S--------12S-------11S------9-------|--7S-------9S------11S-------12S--------14S--------| 
|---------------------------------------------------|---------------------------------------------------| 


    S   S   S  S   S   S  S   S  S  S  S  S S S  E     E   S   S S  S   S S S   S S E  S S  S   
|---------------------------------------------------|-----------------------------------------| 
|---------------------------------------------------|-----------------------------------------| 
|---------------------------------------------------|-----13p-11---11h-13---9h-11---6----6h-8-| 
|---------------------------------------------------|--9---------9--------9-------9----9------| 
|------14p-13-----13p-11-----11p-9-----9p-7---7p-6--|-----------------------------------------| 
|--16S--------14S--------12S-------11S------9-------|-----------------------------------------| 
|---------------------------------------------------|-----------------------------------------| 


   S S  S S S  S S S  S S S  S S S  E     E   S   S S  S   S S S   S S E  S S  S   
|--------------------------------------|-----------------------------------------| 
|--------------------------------------|-----------------------------------------| 
|----8p-6---6h-9---9p-8---8p-6---6p-4--|-----13p-11---11h-13---9h-11---6----6h-8-| 
|--9------9------9------9------9-------|--9---------9--------9-------9----9------| 
|--------------------------------------|-----------------------------------------| 
|--------------------------------------|-----------------------------------------| 
|--------------------------------------|-----------------------------------------| 


   S S  S S S  S S S  S S S  S S S  E      E   S  S  S S   S S   E.   S  S  S E    
|--------------------------------------|-----------------------------------------| 
|--------------------------------------|-----------------------------------------| 
|----8p-6---6h-9---9p-8---8p-6---6p-4--|-----------------------------------------| 
|--9------9------9------9------9-------|------16p-9----9h-16-9h-16---16p-9----9--| 
|--------------------------------------|--13--------13---------------------13----| 
|--------------------------------------|-----------------------------------------| 
|--------------------------------------|-----------------------------------------| 


    E   S  S  S S   S  S  S  S  S S   S  S E      E   S   S  S  S   S  S  S   S  S  S   S  S  S   S   
|---------------------------------------------|-----------------------------------------------------| 
|---------------------------------------------|-----------------------------------------------------| 
|---------------------------------------------|-----------------------------------------------------| 
|------14p-9----9h-14----14p-9----9h-14----9--|------18p-16----16h-18----14p-13----13p-11----11h-13-| 
|--11--------11-------11-------11-------11----|--14---------14--------14--------14--------14--------| 
|---------------------------------------------|-----------------------------------------------------| 
|---------------------------------------------|-----------------------------------------------------| 

                                                                 
    S  S   S  S  S  E   E.   E   Q        E   S   S  S  S   S  S  E   S  S   S  S  E    
|-------------------------------------|-----------------------------------------------| 
|-------------------------------------|------21p-19----19h-21----19-----19h-21----21--| 
|-------------------------------------|--16---------16--------16-----16--------16-----| 
|-----13p-11----11--------------------|-----------------------------------------------| 
|--14--------14-----------------------|-----------------------------------------------| 
|------------------14--14---14--14----|-----------------------------------------------| 
|-------------------------------------|-----------------------------------------------| 


    E   S   S  S  S   S  S  E   S  S   S  S  E      E   S   S  S  S   S  S  S   S  S  S   S  S  E    
|-----------------------------------------------|--------------------------------------------------| 
|------21p-19----19h-21----19-----19h-21----21--|------16p-12----12h-16----16p-12----12h-16----12--| 
|--15---------15--------15-----15--------15-----|--13---------13--------13--------13--------13-----| 
|-----------------------------------------------|--------------------------------------------------| 
|-----------------------------------------------|--------------------------------------------------| 
|-----------------------------------------------|--------------------------------------------------| 
|-----------------------------------------------|--------------------------------------------------| 


    E   S   S  S  S   S  S  S   S  S  S   S  S  S   S     E   S   S  S  S   S  S  S   S  S  S   S  S  S   S   
|-----------------------------------------------------|-----------------------------------------------------| 
|-----------------------------------------------------|-----------------------------------------------------| 
|----------------15h-18----18p-15----15h-18----18p-15-|------15p-11----11h-15----15p-11----11h-15----15p-11-| 
|--16--20p-16-16--------16--------16--------16--------|--11---------11--------11--------11--------11--------| 
|-----------------------------------------------------|-----------------------------------------------------| 
|-----------------------------------------------------|-----------------------------------------------------| 
|-----------------------------------------------------|-----------------------------------------------------| 


    E   S   S  S  S   S  S  S   S  S  S   S  S  S   S     E   S   S  S  S   S  S  S   S  S  S   S  S  S   S   
|-----------------------------------------------------|-----------------------------------------------------| 
|-----------------------------------------------------|-----------------------------------------------------| 
|------16p-13----13h-16----16p-13----13h-16----16p-13-|------15p-11----11h-15----15p-11----11h-15----15p-11-| 
|--13---------13--------13--------13--------13--------|--11---------11--------11--------11--------11--------| 
|-----------------------------------------------------|-----------------------------------------------------| 
|-----------------------------------------------------|-----------------------------------------------------| 
|-----------------------------------------------------|-----------------------------------------------------| 


   E   S  S S S   S S  S   S S  S  Q     H     H      H     H      H     H      H     H 
|-------------------------------------|--7-----6---|--4-----2---|--7-----6---|--4-----2---| 
|-------------------------------------|--7-----7---|--5-----2---|--7-----7---|--5-----2---| 
|-----13p-9---9h-13---13p-11---11p-9--|--8-----6---|--4-----3---|--8-----6---|--4-----3---| 
|--9--------9-------9--------9--------|--9-----8---|--6-----4---|--9-----8---|--6-----4---| 
|-------------------------------------|------------|------------|------------|------------| 
|-------------------------------------|------------|------------|------------|------------| 
|-------------------------------------|------------|------------|------------|------------| 


    Q     H.               W                   
|----------------------|-------------------|| 
|----------------------|-------------------|| 
|----------------------|-------------------|| 
|----------------------|-------------------|| 
|----------------------|-------------------|| 
|----------------------|-------------------|| 
|--0----(0)------------|--L----------------|| 




Duration Legend 
--------------- 
W - whole 
H - half 
Q - quarter 
E - 8th 
S - 16th 
T - 32nd 
X - 64th 
. - note dotted 
|-n-|  - n-tuplets 


Tablature Legend 
---------------- 
L - tied note 
x - dead note 
g - grace note 
(n) - ghost note 
> - accentuded note 
NH - natural harmonic 
AH - artificial harmonic 
TH - tapped harmonic 
SH - semi harmonic 
PH - pitch harmonic 
h - hammer on 
p - pull off 
b - bend 
br - bendRelease 
pb - preBend 
pbr - preBendRelease 
brb - bendReleaseBend 
\n/ - tremolo bar dip 
\n - tremolo bar dive 
-/n - tremolo bar Release up 
/n\ - tremolo bar inverted dip 
/n - tremolo bar return 
-\n - tremolo bar Release down 
S - shift slide 
s - legato slide 
/ -  slide into from below or out of upwards 
\ -  slide into from above or out of downwards 
~ - vibrato 
W - wide vibrato 
tr - trill 
TP - tremolo picking 
T - tapping 
S - slap 
P - pop 
< - fade in 
^ - brush up 
v - brush down 
		  

See also:

tabs Skrillex - Make It Burn Dem tabs Kaskade - Turn It Down tabs Shiny Toy Guns - Ghost Town tabs Fedde Le Grand - Put Your Hands Up 4 Detroit tabs Buckethead - Nightrain (solo) tabs Buckethead - Shaded Ray
e-chords

Other versions:

tabs Buckethead - Ascending Soul
auto scroll beats size up size down change color hide chords drawings
tab show chords e-chords YouTube Clip e-chords hide all tabs e-chords go to top tab

share