Buckethead

Hall Mark

Buckethead

tabs

by  LUCICAMARGO

save to print version add songbook text version e-mail correct tuner
chordsukulelecavacokeyboardtabbassdrumsharmonicaflute Guitar Pro
close

there isn't a video lesson for this song

chords

Hall Mark

	  		
Tempo: 190 
Guitar I - Half-Step Down (D# A# F# C# G# D#) 


First Section (0:00 - 0:20) 
Repeat 4 times 

      E  E  E  E  E  E  E  E     E  E  E  E  E  E  E  E     E  E  E  E  E  E  E  E     E  E  E  E  E  E  E  E    
D#||--------------------------|--------------------------|--------------------------|--------------------------| 
A#||--------------------------|--------------------------|--------------------------|--------------------------| 
F#||--------------------------|--------------------------|--------4--------4--------|--------2--------2--------| 
C#||--------4--------4--------|--------2--------2--------|-----5--------5--------5--|-----4--------4--------4--| 
G#||-----5--------5--------5--|-----4--------4--------4--|--7--------7--------7-----|--5--------5--------5-----| 
D#||--7--------7--------7-----|--5--------5--------5-----|--------------------------|--------------------------| 



Second Section (0:21 - 0:30) 
Repeat 4 times 

      E   E  E   E   Q     E  E     E   E  Q    E   E  Q      
D#||-----------------------------|--------------------------| 
A#||-----------------------------|--------------------------| 
F#||-----------------------------|--------------------------| 
C#||-----------------------------|--------------------------| 
G#||--9--10--9--10--12----10--9--|--9--10--9----9--10--9----| 
D#||--7---8--7---8--10-----8--7--|--7---8--7----7---8--7----| 



Third Section (0:31 - 0:40) 
Repeat 4 times 

      E  E  E  E  Q    E  E     E  E  Q    E  E  Q       
D#||-------------------------|------------------------| 
A#||-------------------------|------------------------| 
F#||-------------------------|------------------------| 
C#||-------------------------|------------------------| 
G#||--4--5--4--5--7----5--4--|--4--5--4----4--5--4----| 
D#||--2--3--2--3--5----3--2--|--2--3--2----2--3--2----| 



Fourth Section (0:41 - 1:00) 

      W                   Q    H        Q       H        Q    Q       Q    H        Q        W                  
D#||-------------------|---------------------|---------------------|----------------------|-------------------| 
A#||-------------------|-------0-------------|-----------0----0----|--L-------------------|-------------------| 
F#||-------------------|---------------------|---------------------|-------0--------------|-------------------| 
C#||-------------------|---------------------|---------------------|----------------------|-------------------| 
G#||--9----------------|--7----L--------7----|--5--------L----L----|--L----L--------5S----|--9----------------| 
D#||--7----------------|--5----L--------5----|--3--------L----L----|--L----L--------3S----|--7----------------| 


  Q    H.              H        Q    Q       Q    H        Q        W                   W                  
--------------------|---------------------|----------------------|-------------------|-------------------| 
-------0------------|-----------0----0----|--L-------------------|-------------------|-------------------| 
--------------------|---------------------|-------0--------------|-------------------|-------------------| 
--------------------|---------------------|----------------------|-------------------|-------------------| 
--7----L------------|--5--------L----L----|--L----L--------5S----|--9----------------|--7----------------| 
--5----L------------|--3--------L----L----|--L----L--------3S----|--7----------------|--5----------------| 


  H.           Q       Q    H        Q        W                   W                   H.           Q      
--------------------|----------------------|-------------------|-------------------|--------------------| 
---------------0----|--L----0--------------|-------------------|-------------------|---------------0----| 
--------------------|----------------------|-------------------|-------------------|--------------------| 
--------------------|----------------------|-------------------|-------------------|--------------------| 
--5------------L----|--L----L--------5S----|--9----------------|--7----------------|--5------------L----| 
--3------------L----|--L----L--------3S----|--7----------------|--5----------------|--3------------L----| 


  Q    H.             
--------------------| 
--L----0------------| 
--------------------| 
--------------------| 
--L----L------------| 
--L----L------------| 



Play Third Section Riff 4 times (1:01 - 1:10) 



Fifth Section (1:11 - 1:20) 

      W                   H        E  Q.        W                   H        E  Q.       
D#||-------------------|---------------------|-------------------|---------------------| 
A#||-------------------|---------------------|-------------------|---------------------| 
F#||-------------------|---------------------|-------------------|---------------------| 
C#||-------------------|---------------------|-------------------|---------------------| 
G#||--9----------------|--L--------4--5------|--9----------------|--L--------4--5------| 
D#||--7----------------|--L--------2--3------|--7----------------|--L--------2--3------| 


               fade in                                                                            
               ^                                                                                  
  H.           Q          H        E  Q.        H.            Q         H           E   Q.        
-----------------------|---------------------|----------------------|---------------------------| 
---------------0-------|--L------------------|----------------------|---------------------------| 
---------------0-------|--L------------------|----------------------|---------------------------| 
---------------9-------|--L------------------|----------------------|---------------------------| 
--9------------L-------|--L--------4--5------|--9-------------------|---------------------------| 
--7------------L-------|--L--------2--3------|--7------------24\----|--15\--------/12---L\------| 



Sixth Section (1:21 - 2:00) 

         PM PM    PM PM    PM    PM    PM PM    PM PM       PM PM    PM PM    PM PM       PM PM    PM PM    PM   
      E  E  E  E  E  E  E  E     E  E  E  E  E  E  E  E     E  E  E  E  E  E  E  E     E  E  E  E  E  E  E  E    
D#||--------------------------|--------------------------|--------------------------|--------------------------| 
A#||--------------------------|--------------------------|--------------------------|--------------------------| 
F#||--------------------------|--------------------------|--------------------------|--------------------------| 
C#||--4--------2--------4-----|--------------2--------4--|--------2--------4--------|-----------2--------------| 
G#||-----2--2-----2--2-----2--|--2--5--2--2-----2--2-----|--2--2-----2--2-----2--2--|--5--2--2-----2--2--4-----| 
D#||--------------------------|--------------------------|--------------------------|-----------------------2--| 


  PM    PM PM    PM PM       PM PM    PM PM    PM PM       PM PM    PM PM    PM    PM    PM PM               
  E  E  E  E  E  E  E  E     E  E  E  E  E  E  E  E     E  E  E  E  E  E  E  E     E  E  E  E  E  E  E  E    
--------------------------|--------------------------|--------------------------|--------------------------| 
--------------------------|--------------------------|--------------------------|--------------------------| 
--------------------------|--------------------------|--------------------------|--------------------------| 
--------------------------|--------------------------|--------------------------|-----------------------4--| 
-----2--------4-----------|--------2--------4--------|--2--------4--------------|-----2--------4--4--2-----| 
--2-----2--2-----2--2--5--|--2--2-----2--2-----2--2--|-----2--2-----2--2--5--2--|--2-----2--2--------------| 


  PM PM    PM PM    PM PM       PM PM    PM PM    PM    PM    PM PM    PM PM       PM PM    PM PM    PM PM   
  E  E  E  E  E  E  E  E     E  E  E  E  E  E  E  E     E  E  E  E  E  E  E  E     E  E  E  E  E  E  E  E    
--------------------------|--------------------------|--------------------------|--------------------------| 
--------------------------|--------------------------|--------------------------|--------------------------| 
--------------------------|--------------------------|--------------------------|--------------------------| 
--------2--------4--------|-----------2--------4-----|-----2--------4-----------|--------2--------4--------| 
--2--2-----2--2-----2--2--|--5--2--2-----2--2-----2--|--2-----2--2-----2--2--5--|--2--2-----2--2-----------| 
--------------------------|--------------------------|--------------------------|--------------------2--2--| 


     PM PM    PM PM    PM    PM    PM PM    PM PM       PM PM    PM PM    PM PM       PM PM    PM PM    PM   
  E  E  E  E  E  E  E  E     E  E  E  E  E  E  E  E     E  E  E  E  E  E  E  E     E  E  E  E  E  E  E  E    
--------------------------|--------------------------|--------------------------|--------------------------| 
--------------------------|--------------------------|--------------------------|--------------------------| 
--------------------------|--------------------------|--------------------------|--------------------------| 
--------------------------|--------------------------|--------------------------|--------------------------| 
--4--------2--------4-----|--------------2--------4--|--------2--------4--------|-----------2--------4-----| 
-----2--2-----2--2-----2--|--2--5--2--2-----2--2-----|--2--2-----2--2-----2--2--|--5--2--2-----2--2-----3--| 


     PM PM    PM PM    PM    PM    PM PM    PM PM       PM PM    PM PM    PM PM       PM PM    PM PM    PM   
  E  E  E  E  E  E  E  E     E  E  E  E  E  E  E  E     E  E  E  E  E  E  E  E     E  E  E  E  E  E  E  E    
--------------------------|--------------------------|--------------------------|--------------------------| 
--------------------------|--------------------------|--------------------------|--------------------------| 
--------------------------|--------------------------|--------------------------|--------------------------| 
--------------------------|--------------------------|--------------------------|--------------------------| 
--5--------4--------5-----|-----2--------4--------5--|--------4--------5--------|--5--------4--------5-----| 
-----3--3-----3--3-----3--|--3-----3--3-----3--3-----|--3--3-----3--3-----3--3--|-----3--3-----3--3-----2--| 


     PM PM    PM PM    PM    PM    PM PM    PM PM       PM PM    PM PM    PM PM       PM PM    PM PM    PM   
  E  E  E  E  E  E  E  E     E  E  E  E  E  E  E  E     E  E  E  E  E  E  E  E     E  E  E  E  E  E  E  E    
--------------------------|--------------------------|--------------------------|--------------------------| 
--------------------------|--------------------------|--------------------------|--------------------------| 
--------------------------|--------------------------|--------------------------|--------------------------| 
--------------------------|--------------------------|--------------------------|--------------------------| 
--4--------2--------4-----|--------------2--------4--|--------2--------4--------|-----------2--------4-----| 
-----2--2-----2--2-----2--|--2--5--2--2-----2--2-----|--2--2-----2--2-----2--2--|--5--2--2-----2--2-----3--| 


  PM PM PM    PM PM    PM    PM    PM PM    PM PM       PM PM    PM PM    PM PM       PM PM    PM PM    PM   
  E  E  E  E  E  E  E  E     E  E  E  E  E  E  E  E     E  E  E  E  E  E  E  E     E  E  E  E  E  E  E  E    
--------------------------|--------------------------|--------------------------|--------------------------| 
--------------------------|--------------------------|--------------------------|--------------------------| 
--------------------------|--------------------------|--------------------------|--------------------------| 
--------------------------|--------------------------|--------------------------|--------------------------| 
-----------4--------5-----|-----2--------4--------5--|--------4--------5--------|--4--------4--------5-----| 
--3--3--3-----3--3-----3--|--3-----3--3-----3--3-----|--3--3-----3--3-----3--3--|-----3--3-----3--3-----2--| 


     PM PM    PM PM    PM    PM    PM PM    PM PM       PM PM    PM PM    PM PM       PM PM               
  E  E  E  E  E  E  E  E     E  E  E  E  E  E  E  E     E  E  E  E  E  E  E  E     E  E  E  E  H          
--------------------------|--------------------------|--------------------------|-----------------------| 
--------------------------|--------------------------|--------------------------|-----------------------| 
--------------------------|--------------------------|--------------------------|-----------------------| 
--------------------------|--------------------------|--------------------------|-----------------------| 
--4--------2--------4-----|--------------2--------4--|--------2--------4--------|--4--------4--L--------| 
-----2--2-----2--2-----2--|--2--5--2--2-----2--2-----|--2--2-----2--2-----2--2--|-----2--2--2--L--------| 



Seventh Section (2:01 - 2:21) 

      Q    Q    Q    Q       W          Q     Q       Q    Q       H        Q     E  E     Q    Q    Q    Q      
D#||----------------------|---------|---------------------------|-----------------------|----------------------| 
A#||----------------------|---------|---------------------------|-----------------------|----------------------| 
F#||----------------------|---------|---------------------------|-----------------------|----------------------| 
C#||--4----6----7----9----|--L------|--11----12----11g9----9----|--L--------9\----x--x--|--4----6----7----9----| 
G#||--2----4----5----7----|--L------|---9----10-----9g7----7----|--L--------7\----x--x--|--2----4----5----7----| 
D#||----------------------|---------|---------------------------|-----------------------|----------------------| 


  W         E    Q.      Q.      E      Q     E    Q    Q.        Q    Q    Q    Q       W                  
---------|--------------------------|--------------------------|----------------------|---------| 
---------|--------------------------|--------------------------|----------------------|---------| 
---------|--------------------------|--------------------------|----------------------|---------| 
--L------|--9s--11------12------14--|---L----12s--11----9------|--4----6----7----9----|--L------| 
--L------|--7s---9------10------12--|---L----10s---9----7------|--2----4----5----7----|--L------| 
---------|--------------------------|--------------------------|----------------------|---------| 


   Q     Q       Q    Q       Q      Q     Q      Q        Q    Q    Q    Q       W                  
---------------------------|----------------------------|----------------------|--------| 
---------------------------|----------------------------|----------------------|--------| 
---------------------------|----------------------------|----------------------|--------| 
--11----12----11g9----9----|--L-------------------------|--4----6----7----9----|--L-----| 
---9----10-----9g7----7----|--L-------------------------|--2----4----5----7----|--L-----| 
---------------------------|-------/24----24\----12\----|----------------------|--------| 


   E   Q     Q.     E  E     E  Q.     H          
--------------------------|---------------------| 
--------------------------|---------------------| 
--------------------------|---------------------| 
--11--12----11------9--7--|--L--6------2--------| 
---9--10-----9------7--5--|--L--4------0--------| 
--------------------------|---------------------| 



Play Third Section Riff 8 times (2:22 - 2:41) 



Eight Section (2:42 - 3:01) 

      E  E  E  Q.     Q       W                   E  E  E  Q.     Q       W                 
D#||-----------------------|-------------------|-----------------------|-------------------| 
A#||-----------7-----------|-------------------|-----------5-----------|-------------------| 
F#||--------9---------9----|--L----------------|--------7---------7----|--L----------------| 
C#||--9--9-----------------|--L----------------|--7--7-----------------|--L----------------| 
G#||--7--------------------|--L----------------|--5--------------------|--L----------------| 
D#||-----------------------|-------------------|-----------------------|-------------------| 


   E   E   E   Q.      Q       W                    E   E  E   Q.     Q       W                  
----------------------------|-------------------|--------------------------|-------------------| 
--------------10------------|-------------------|-------------10-----------|-------------------| 
----------12----------12----|--L----------------|----------9----------9----|--L----------------| 
--12--12--------------------|--L----------------|--11--11------------------|--L----------------| 
--10------------------------|--L----------------|---9----------------------|--L----------------| 
----------------------------|-------------------|--------------------------|-------------------| 


  E  E  E  Q.     Q       W              E  E  E  Q.     Q       W               E   E   E   Q.      Q      
-----------------------|--------------|-----------------------|--------------|----------------------------| 
-----------7-----------|--------------|-----------5-----------|--------------|--------------10------------| 
--------9---------9----|--L-----------|--------7---------7----|--L-----------|----------12----------12----| 
--9--9-----------------|--L-----------|--7--7-----------------|--L-----------|--12--12--------------------| 
--7--------------------|--L-----------|--5--------------------|--L-----------|--10------------------------| 
-----------------------|--------------|-----------------------|--------------|----------------------------| 


  W                    E   E  E   Q.     Q       H         H           
-------------------|--------------------------|----------------------| 
-------------------|-------------10-----------|----------------------| 
--L----------------|----------9----------9----|--L-------------------| 
--L----------------|--11--11------------------|--L-------------------| 
--L----------------|---9----------------------|--L--------12\--------| 
-------------------|--------------------------|-----------12\--------| 



Play Third Section Riff 8 times (3:02 - 3:25) 
 
		  

See also:

tabs Skrillex - Make It Burn Dem tabs Kaskade - Turn It Down tabs Shiny Toy Guns - Ghost Town tabs Fedde Le Grand - Put Your Hands Up 4 Detroit tabs Buckethead - Nightrain (solo) tabs Buckethead - Shaded Ray
e-chords

Other versions:

tabs Buckethead - Hall Mark
auto scroll beats size up size down change color hide chords drawings
tab show chords e-chords YouTube Clip e-chords hide all tabs e-chords go to top tab

share