Buckethead

Nottingham Lace

Buckethead

chords Expert expert

by  HALEN666

save to print version add songbook text version e-mail correct tuner
chordsukulelecavacokeyboardtabbassdrumsharmonicaflute Guitar Pro
close

there isn't a video lesson for this song

chords

Nottingham Lace

	  		Gtr III 
                                                 4x 
||-----------------------------------------------|| 
||-----------------------------------------------|| 
||-----------------------------------------------|| 
||-----------------------------------------------|| 
||-----------------------------------------------|| 
||--3h5-x-3-2h3-x-1-0h1----3h5-x-3-2h3-x-1-0h1---|| 

 Gtr II 
||-------/20--18----17---22---20--18---17--|| 
||--15-------------------------------------|| 
||-----------------------------------------|| 
||-----------------------------------------|| 
||-----------------------------------------|| 
||-----------------------------------------|| 
| 
| Gtr I 
|-8-8-8--11-11-----8-8-8--6-6---||---8-8---8--11-11----|--8-8--8---6-6-----|| 
|-------------------------------||---------------------|-------------------|| 
|-------------------------------||---------------------|-------------------|| 
|-------------------------------||---------------------|-------------------|| 
|-------------------------------||---------------------|-------------------|| 

                                        3x 
||-------/20--18--17---22---20--18--17--||------/20--18--17----------------| 
||--15----------------------------------||-15------------------------------| 
||--------------------------------------||---------------------------------| 
||--------------------------------------||---------------------------------| 
||--------------------------------------||---------------------------------| 
||--------------------------------------||---------------------------------| 
|  
|                                       3x 
||--------------------------------------||---------------------------------| 
||--------------------------------------||---------------------------------| 
||--------------------------------------||---------------------------------| 
||---------5---3---2----7----5---3---2--||--------5---3---2---7--5--3--2---| 
||---0-----3---1---0----5----3---1---0--||--0-----3---1---0---5--3--1--0---| 
||---0----------------------------------||--0------------------------------| 

Gtr III 
                                                 4x 
||-----------------------------------------------|| 
||-----------------------------------------------|| 
||-----------------------------------------------|| 
||-----------------------------------------------|| 
||-----------------------------------------------|| 
||--3h5-x-3-2h3-x-1-0h1----3h5-x-3-2h3-x-1-0h1---|| 

||--------------------------------------------| 
||--------------------------------------------| 
||--------------------------------------------| 
||--------------------------------------------| 
||--------------------------------------------| 
||--5-x-5-x-5-x-5-x-6-3---5-x-5-x-5-x-5-x-6-3-| 

|--------------------------------------------------|| 
|--------------------------------------------------|| 
|--------------------------------------------------|| 
|--------------------------------------------------|| 
|--------------------------------------------------|| 
|-5-x-5-x-5-x-5-x-6-3---5-x-5-x-5-8-5-8-5-6-3-6-3--|| 
                                                                 4x 
||---------------------------9------------------------------9----|| 
||-----------9-10-11-10-9-------------------9-10-11-10-9---------|| 
||--12-12-12--------------12-------12-12-12--------------12------|| 
||---------------------------------------------------------------|| 
||---------------------------------------------------------------|| 
||---------------------------------------------------------------|| 

Gtr II 
8x                              3x 
||---------------------------||---------------------------|| 
||---------------------------||---------------------------|| 
||--14-10-14-10--9-10-12--9--||--14-10-14-10--9-10-12--9--|| 
||--12-12-12-12-10-10-10-10--||--12-12-12-12-10-10-10-10--|| 
||---------------------------||---------------------------|| 
||---------------------------||---------------------------|| 
| Gtr I  8x 
||---------------------------|| 
||---------------------------|| 
||---------------------------|| 
||---7-----------5-----------|| 
||---5-----------3-----------|| 
||---------------------------|| 

                                                    3x 
|----------------------||---------------------------||-----------------------| 
|----------------------||---------------------------||-----------------------| 
|-7-9-10-7--9-10-12--9-||--14-10-14-10--9-10-12--9--||-7-9-10-7--9-10-12--9--| 
|-8-8--8-8-10-10-10-10-||--12-12-12-12-10-10-10-10--||-8-8--8-8-10-10-10-10--| 
|----------------------||---------------------------||-----------------------| 
|----------------------||---------------------------||-----------------------| 
| 
|                                                   3x 
|----------------------||---------------------------||-----------------------| 
|----------------------||---------------------------||-----------------------| 
|----------------------||---------------------------||-----------------------| 
|-3---------5----------||---7-----------5-----------||-3---------5-----------| 
|-1---------3----------||---5-----------3-----------||-1---------3-----------| 
|----------------------||---------------------------||-----------------------| 
		  

See also:

chords Róisín Murphy - Movie star chords Skye Edwards - Love Show chords Massive Attack - Teardrop chords Skrillex - Mind chords Bomfunk MCs - American Guy in Germany chords Kasino - Stockholm
e-chords

Other versions:

chords Buckethead - Nottingham Lace
auto scroll beats size up size down change color hide chords simplify chords drawings columns
tab show chords e-chords YouTube Clip e-chords hide all tabs e-chords go to top tab

share