Buckethead

home > Buckethead

12 Days Of Christmas Tab

Buckethead

Difficulty: nolevelnolevel

by brunblazkowski

tuner correct add songbook print version text version save to e-mail
chordsukulelecavacokeyboardtabbassdrumsharmonicsflute Guitar Pro
chords

12 Days Of Christmas

  		E|-----------01-0-| 
A|----111-013--3--| 
D|-000------------| 
G|----------------| 
B|----------------| 
E|----------------| 

E|-3-01--| 
A|--3--3-| 
D|-------| 
G|-------| 
B|-------| 
E|-------| 

E|-3-5-2-3-| 
A|---------| 
D|---------| 
G|---------| 
B|---------| 
E|---------| 

E|-310---1----------| 
A|----31---1--310---| 
D|--------2------20-| 
G|------------------| 
B|------------------| 
E|------------------| 
	  

Search Paypal
auto scroll beats size up size down change color hide chords drawings
tab show chords e-chords YouTube Clip e-chords hide all tabs e-chords go to top tab