Buckethead

The Way To The Heaven

Buckethead

tabs Expert expert

by  GUSAKORN

save to print version add songbook text version e-mail correct tuner
chordsukulelecavacokeyboardtabbassdrumsharmonicaflute Guitar Pro
close

there isn't a video lesson for this song

chords

The Way To The Heaven

	  		The Way to Heaven by Buckethead 
from Electric Tears 

1. 
Rhythm (Slightly Muted): 
---------7----------------7----------------7----------------7-----------| 
-------0---0------------0---0------------0---0------------0---0---------| 
-----5-------5--------5-------5--------7-------7--------7-------7-------| 
---7-----------7----7-----------7----5-----------5----5-----------5-----| 
-0----------------0----------------0----------------0-------------------| 
------------------------------------------------------------------------| 

---------5----------------5----------------0----------------------------| 
-------0---0------------0---0------------1---1--------------------------| 
-----5-------5--------5-------5--------2-------2--------0------0--------| 
---3-----------3----3-----------3----2-----------2----2------0-------2--| 
-0----------------0----------------0----------------3------2-------3----| 
------------------------------------------------------------------------| 

Lead: 
-----------------------------8h10-8s7~---7h8-7--------------------------| 
--------------5s8-8h10~---10-------------------8------------------------| 
-3s5~-----5h7------------------------------------7s9~-------------------| 
--------7---------------------------------------------------------------| 
------------------------------------------------------------------------| 
------------------------------------------------------------------------| 

---------12-------------8-10-8s7~---7-8-10--8h10--8h10p8s7h8---p7-------| 
-12brp10----10-10~---10-------------------------------------------s9~---| 
------------------------------------------------------------------------| 
------------------------------------------------------------------------| 
------------------------------------------------------------------------| 
------------------------------------------------------------------------| 

3 3 1 1 2 1 2 1 1 
-12s10-8--7h8------------------15-17------------------------------------| 
--------------8-------------17-------15h17~--15h17p15s13----------------| 
----------------9--7s9~-------------------------------------------------| 
------------------------------------------------------------------------| 
------------------------------------------------------------------------| 
------------------------------------------------------------------------| 

---------------------------------15-------------------------------------| 
----13-15--13h15p13h15p13--15b~-----15br~-15-13s12-h13------------------| 
-14----------------------------------------------------12h14~-/sl-------| 
------------------------------------------------------------------------| 
------------------------------------------------------------------------| 
------------------------------------------------------------------------| 

4 3 3 1 1 2 1 2 2 
------------------------------------------------------------------------| 
-8----------------------------------------------------------------------| 
---7b-7-5-4h5-----------------------------------------------------------| 
--------------5---------------------------------------------------------| 
----------------5~s7----------------------------------------------------| 
------------------------------------------------------------------------| 

2. 
Break: 
Rhythm: 
-3--0-----3--0-----3--1-----3--0----------------------------------------| 
-3--1-----3--1-----3--1-----3--1----------------------------------------| 
-0--2-----0--2-----0--2-----0--2----------------------------------------| 
-0--2-----0--2-----0--3-----0--2----------------------------------------| 
-2--0-----2--0-----2--3-----2--0----------------------------------------| 
-3--------3--------3--1-----3-------------------------------------------| 

----------------------------s12~s10-8h10p8s7-h8-------------------------| 
------------------------------------------------8s10~-------------------| 
-5-5h7--5----------5-7s9~-----------------------------------------------| 
----------5~-----x7-----------------------------------------------------| 
---------------x7-------------------------------------------------------| 
------------------------------------------------------------------------| 

---------12----------------15-12~---------------------------------------| 
-12brp10----10~---10s12h13----------17s15-13h15p13s12~~-----------------| 
------------------------------------------------------------------------| 
------------------------------------------------------------------------| 
------------------------------------------------------------------------| 
------------------------------------------------------------------------| 

---------17-----19br----------------------------------------------------| 
------17----17-------20---------------17s15-13h15p13s12~s8-8h10~--------| 
-s19b-------------------17h19s21~---------------------------------------| 
------------------------------------------------------------------------| 
------------------------------------------------------------------------| 
------------------------------------------------------------------------| 

---5--------------------------------------------------------------------| 
--x--5-8---------------------------8~---5h8s10~-------------------------| 
-x-------7brbr~--5-4br~-----7b-7-5--------------------------------------| 
------------------------------------------------------------------------| 
------------------------------------------------------------------------| 
------------------------------------------------------------------------| 

3. 
Return To Rhythm: 
---------7----------------7----------------7----------------7-----------| 
-------0---0------------0---0------------0---0------------0---0---------| 
-----5-------5--------5-------5--------7-------7--------7-------7-------| 
---7-----------7----7-----------7----5-----------5----5-----------5-----| 
-0----------------0----------------0----------------0-------------------| 
------------------------------------------------------------------------| 

---------5----------------5----------------0----------------------------| 
-------0---0------------0---0------------1---1--------------------------| 
-----5-------5--------5-------5--------2-------2--------0------0--------| 
---3-----------3----3-----------3----2-----------2----2------0-------2--| 
-0----------------0----------------0----------------3------2-------3----| 
------------------------------------------------------------------------| 

Lead: 
------------------------------------------------15brp12-----------------| 
-15br-13--12-13------------15br-13-12~--h13-------------15b-15~---------| 
----------------12h14~--------------------------------------------------| 
------------------------------------------------------------------------| 
------------------------------------------------------------------------| 
------------------------------------------------------------------------| 

------------------------------------------------------------------------| 
-10-12b-12br--10--------------------------------------------------------| 
------------------------------------------------------------------------| 
-----------------12s14~s12~s10------------------------------------------| 
------------------------------------------------------------------------| 
------------------------------------------------------------------------| 

Whammy Pedal Parts (that's all) 
-----------------------------------------| 
-----------------------------------------| 
-----------------------------------------| 
-----------------------------------------| 
-----------------------------------------| 
-----------------------------------------| 
		  

See also:

tabs Shiny Toy Guns - When Did This Storm Begin tabs Celldweller - The Wings Of Icarus tabs Peaches - Sucker tabs Buckethead - Four Rivers tabs Shiny Toy Guns - Ricoche tabs To Mars and Back Again - Follow the yellow brick road
e-chords

Other versions:

tabs Buckethead - The Way To The Heaven
auto scroll beats size up size down change color hide chords drawings
tab show chords e-chords YouTube Clip e-chords hide all tabs e-chords go to top tab

share