Blind Blake

Too Tight Blues

Blind Blake

tabs Intermediate intermediate

by  ROWANE

save to print version add songbook text version e-mail correct tuner
chordsukulelecavacokeyboardtabbassdrumsharmonicaflute Guitar Pro
close

there isn't a video lesson for this song

chords

Too Tight Blues

Year: 1999 - Album: Georgia Bound

	  		BLIND BLAKE: Too Tight Blues #2 
________________________________ 
 
 
same basic progression as "Come on Boys" with a few extras: 
 
first break: 
-3-3-3-3-3-3-3-3-3-1-0----------------------------------1-1--3- 
-----------------------3---0----------------------------0-0---- 
-------------------------3----0-----0---0---0------------------ 
--------------------------------0--5--5---5---5-2-------0------ 
--------------------------------------------------1h2---------- 
-3----------------------------------------------------3-------- 
 
-3-3-3-3-3-3-3-3-3-1-0---------------------------------- 
-----------------------3---0---------------------------- 
-------------------------3----0-----0---0---0----------- 
--------------------------------0--5--5---5---5-2------- 
-3------------------------------------------------1h2--- 
------------------------------------------------------3- 
 
 
-----------------------------------------3--1--------1-1- 
---0---1---2----3----3---3----2----1-----0--0----0---0--- 
-----------------------------------0-----------3--------- 
-----------------------------------------0-----0-----0--- 
-2---3---4----5----5---5----4----3----------------------- 
---------------------------------------3----3-----3------ 
 
2nd break repeats first measure of first break, then repeats 
verse, then: 
----------------------------------------- 
------8-8------8------------------------- 
----------------------------------------- 
-------------------------9-8-7-6-5-4-3-2- and finish verse 
-7/10-----7/10----7/10-10-9-8-7-6-5-4-3-- 
----------------------------------------- 
 
scat 2 verses 
 
first break 
 
scat verse 

		  

auto scroll beats size up size down change color hide chords drawings
tab show chords e-chords YouTube Clip e-chords hide all tabs e-chords go to top tab

share