Blind Blake

Hey Hey Daddy Blues

Blind Blake

tabs

by  ROWANE

save to print version add songbook text version e-mail correct tuner
chordsukulelecavacokeyboardtabbassdrumsharmonicaflute Guitar Pro
close

there isn't a video lesson for this song

chords

Hey Hey Daddy Blues

Year: 1990 - Album: All the Published Sides

	  		BLIND BLAKE: Hey Hey Daddy Blues 
_________________________________ 
 
 
Intro: 
-3-3--1--3--1-------------------------------3-2-1-1---0-3-1-3-1-0- 
-----------------------1---3(4)-3--1-----1------------1---------1- 
---------------0---0-2---------------2-0-2------------------------ 
------0--------0-------3----------------------------0-----------2- 
-----------------------------------------3------------3---------3- 
-3----------3------1------------1---------------3---------3------- 
 
-----3-0--------------2-----1------3-0-----------2-2- 
---------1----------1------------------1---------1-1- 
---0-------2-0----1-----------0----------2-0---1----- 
----------------1-------0--------------------1------- 
-3----------------------------2--3------------------- 
--------------------------3-------------------------- 
 
C   G7 
G7 
F -5--  C A7  D7 G7 C 
  -4-- 
  -5-- 
  -4-- 
  ---- 
 
C G7 C 
 
Outro: 
-3-2-1-0---0----------------- 
---------4---1--------------- 
---------------2----0-2-0--3- 
-----------------1h2-------2- 
---------------------------3- 
----------------------------- 

		  

Full key step upFull key step up
Half key step upHalf key step up
Half key step downHalf key step down
Full key step downFull key step down
auto scroll beats size up size down change color hide chords drawings
tab show chords e-chords YouTube Clip e-chords hide all tabs e-chords go to top tab

share