Blind Blake

Blind Arthur's Breakdown

Blind Blake

tabs Expert expert

by  ROWANE

save to print version add songbook text version e-mail correct tuner
chordsukulelecavacokeyboardtabbassdrumsharmonicaflute Guitar Pro
close

there isn't a video lesson for this song

chords

Blind Arthur's Breakdown

Year: 1990 - Album: All the Published Sides

	  		BLIND BLAKE: Blind Arthur's Breakdown 
______________________________________ 
 
 
Intro: 
                C    A7   D7   G7   C    A7   D7   G7 
-2--3--4--3--2----0-----3---2----1----0----3----2----1- 
-1--2--3--2--1----1-----2---1----0----1----2----1----0- 
-1--2--3--2--1----0-----2---2----0----0----2----2----0- 
-1--2--3--2--1----2-----2---0----0----2----2----0----0- 
----------------3----0--------------3----0------------- 
--------------------------2----3--------------2----3--- 
 
                                                 4x 
---0----0----3--3--0-1-2----------3--1----0--||----0-----0-|| 
---1--4------2--2------1--------0---------1--||----3-----1-|| 
---0------------2-------------3---------0----||------------|| 
-----------------------0----------------2----||----2-----2-|| 
-3---------0--------------------------3------||-------0----|| 
-------------------2------3------------------||--0---------|| 
 
------------3-1---------0-3-1--------5--3---2---------------------------- 
--------------------0-3---------1----2------1----0---1--2--3---3---2--1-- 
---------0------0-3-------------0----2-----------0--2--3--4-------------- 
---------0----------------------2----2------0---------------------------- 
---0-1-2----------------------3----0-------------------------5---4--3--2- 
-3----------------------------------------2----3------------------------- 
 
-3--1----------0-3-------------2----------3--2---1--1--3-2-1-0- 
-----------0-3---------3----1--1----------2--1---3--3--------1- 
-------0-3-------------1----2--1-------------2---------------0- 
----------------------2-----3--1-----------------------------2- 
----------------------------3-----3-2-1-0--------------------3- 
-------------------0------1------------------------------------ 
 
---2-2---3-3--2----1-------------------------------0---0- 
---1-1---2-2--1----0--0---------------------3---3--1---1- 
--------------------------------------------3---3--3---3- 
-1-----2--------0--------------0-3-0--------------------- 
---------------------------0-3-------3-0--1-------3------ 
--------------2----3-----1--------------------1------3--- 
 
----------------------2--1-1-3-1------------2----0----3--2--1--1- 
----------------------1-----------1-----1---1----1----2--1--0--0- 
----------------------2-----------3-----2---1----0----2--2------- 
---------0-3-3-2-1--0-------------2-----3---1----2------------0-- 
-----0-3-------------------------3-------------3----0------------ 
-1-1---------------------3------------1-----------------2---3---- 
 
-3---3/5--1-----3/5--1-----0--3/5-0--4--5-3--2-------------------- 
---------------------------1-----------------1---0-1-2-3--3-2-1-0- 
---------------------------0---------------------0-2-3-4---------- 
---0---------0------0------------------------0-------------------- 
-------------------------3--------------0-----------------5-4-3-2- 
-3--------3-----3-------------3------0------2--------------------- 
 
---1-----------0--------------2----3-0----3--2---1-------------------- 
---0------1--4-----3-----2----1----1------2--1---0-------------------- 
-------------------1-----3----2-----------2--2---0-------------------- 
---0------2--------2-----3------0-------------------1-0---1-0---1-0--- 
--------3--------------------------3----0---------------3-----3-----3- 
-3----3----------0-----1----2---------------2--3---------------------- 
 
----------------------------3--1-------0-3-1---0------------------3- 
-0--1--2-0--0-0--1--2--3-0----------0-3--------1------------------2- 
-0-2--3--0--0-0-2--3--4--0-------0-3-----------0------------------2- 
-------------------------------0------0-------------------------0--- 
---------------------------------------------3----0-1-2--0-1-2------ 
----------------------------3--------------------------3------3----- 
 
---2-----------3---------------------0----------0---- 
---1--0--1--2--0-----8---8--7-6-5----5----------5---- 
---------------0---0---0----------------------------- 
---0---------------------------------6---6~----7---7- 
------3--2--1-----10--10---9--8-7--7---------0------- 
-2-------------3-----------------------7--------0---- 
 
----------------------------------------3----1---3-0---------0- 
-----------------------------------------------0-----1--1-1--1- 
-----------------------------------------------------0--1-1--0- 
---------------------0-3-4--0-3-4-------0----0----------1-1--2- 
-0-3-4--0-3-4--0-3-4--------------0-1-2--------------3-------3- 
-------------------------------------------3------------------- 

		  

Full key step upFull key step up
Half key step upHalf key step up
Half key step downHalf key step down
Full key step downFull key step down
auto scroll beats size up size down change color hide chords drawings
tab show chords e-chords YouTube Clip e-chords hide all tabs e-chords go to top tab

share