Blind Blake

Bad Feeling Blues

Blind Blake

tabs

by  ROWANE

save to print version add songbook text version e-mail correct tuner
chordsukulelecavacokeyboardtabbassdrumsharmonicaflute Guitar Pro
close

there isn't a video lesson for this song

chords

Bad Feeling Blues

	  		BLIND BLAKE: Bad Feeling Blues 
_______________________________ 
 
 
Dropped D Tuning 
 
Intro: 
-2-2--1-2--------------0-1p0---1-------0----------------0---0---0----- 
----------3--0-------3-------3---3---2----3---------0-----3---2-----3- 
-------------------------------------0----2-------2---1-------0------- 
------0------------------0--------------------3-4-----------------3/4- 
---------------0-1-2-----------2-----0----------------2-------0------- 
-0----------0-----------------------------0-------------------------0- 
 
Verse: 
-2-2-----3-------------0-1p0---1----2---5-1h2--------0-1h2-------2--- 
-3-3-------2---------3-------3---3--3---------3--0h3-------3-2-1----- 
------------------------------------------------2-------------------- 
-----0-------0-----------0----------------0----------0-------------0- 
-----------------1-2-----------2------------------------------------- 
-0------0---------------------------0-----------0--------0----------- 
 
----0-1---1--------0-1---1-------5--1h2---------0-1h2----------- 
--3-----3---3-----3----3---3------------3---0h3-------3---0-3--- 
------------------------------------------2-------------2------- 
------0-------0------0-------0------0-----------0---------0----- 
-2--------2------2-------2-------------------------------------- 
-------------------------------0----------0---------0---------0- 
 
-3--3--3-3-----------1----0-----------------0------0------------------- 
-2--2--2-2---------3----2---2---------0-------3--2---3----3--3---3----- 
------------------------------------2----1----------------2--2---2----- 
----2------2--------------------3-4-----------------------4--4-------4- 
-0-----0-------1-2------0----------------2-------0--------------------- 
--------------------------------------------------------0----------0--- 

		  

Full key step upFull key step up
Half key step upHalf key step up
Half key step downHalf key step down
Full key step downFull key step down
hide glossary

See also:

tabs The Rev. Peyton's Big Damn Band - My Old Man Boogie tabs Stevie Ray Vaughn and Double Trouble - Life By The Drop tabs Muddy Waters - Louisiana Blues tabs Blind Blake - Blind Arthur's Breakdown tabs B.B. King - B.B.King Guitar Style tabs Corey Smith - Twenty-One
e-chords

Other versions:

tabs Blind Blake - Bad Feeling Blues
auto scroll beats size up size down change color hide chords drawings
tab show chords e-chords YouTube Clip e-chords hide all tabs e-chords go to top tab

share