Blind Blake

Black Dog Blues

Blind Blake

tabs Beginner beginner

by  ROWANE

save to print version add songbook text version e-mail correct tuner
chordsukulelecavacokeyboardtabbassdrumsharmonicaflute Guitar Pro
close

there isn't a video lesson for this song

chords

Black Dog Blues

Year: 1930 - Album: All the Published Sides

	  		BLIND BLAKE: Black Dog Blues 
_____________________________ 
 
 
Intro: 
-3-1--1--------3-------------0----------------3------1--1---------3-3-3--- 
--------3-0-------------1--4---1---------1--------------------1----------- 
-------------0--------0----------0----------------------------0-0--------- 
------0----------0------2------------1h2--------2---------0---2---0-----0- 
--------------------------------------------3--------2------3------------- 
-3-----------3------0--------------0---------------3------------------3--- 
 
verse: 
 
C F Ab7 
C G7 C  
F Ab7 G7 
C G7 C   A7 
G Ab7 G7 C G7 C G7 
 
   
-3-0--------5--3- 
-----4-3-/2------ 
----------------- 
---------------2- 
----------0------ 
----------------- 
 
   
--------0-1-2-3---0------- 
-1--3-4---------4---1----- 
-0--------------------3-2- 
-------------------------- 
-3------------------------ 
-------------------------- 
 
-3-5-3-1-1--------0-1-2-3---0------- 
------------1--3-4---------4---1---- 
--------------------------------3-2- 
----------0------------------------- 
-3----------3----------------------- 
-------3---------------------------- 
 
---------------------------- 
---------------------------- 
-/6--/6--/6~---/6-/6-/6-/6~- 
---------------------------- 
---------------------------- 
---------------------------- 
 
--------0-1-2-3---0------- 
-1--3-4---------4---1----- 
-0--------------------3-2- 
-------------------------- 
-3------------------------ 
-------------------------- 
 
-3---0----------- 
---4---1--------- 
---------0-2---3- 
---------------2- 
----------------- 
----------------- 
 
outro: 
----------------------------------- 
----------------------------------- 
-0-2-3-/6-6-6-6-6--0-------0-2-0-3- 
---------------------1-2---------2- 
-------------------------3-------3- 
----------------------------------- 

		  

Full key step upFull key step up
Half key step upHalf key step up
Half key step downHalf key step down
Full key step downFull key step down
auto scroll beats size up size down change color hide chords drawings
tab show chords e-chords YouTube Clip e-chords hide all tabs e-chords go to top tab

share