Blind Blake

Diddie wa diddie

Blind Blake

tabs Easy easy

by  ROWANE

save to print version add songbook text version e-mail correct tuner
chordsukulelecavacokeyboardtabbassdrumsharmonicaflute Guitar Pro
close

there isn't a video lesson for this song

chords

Diddie wa diddie

Year: 1930 - Album: The Essential

	  		BLIND BLAKE: DIDDIE WA DIDDIE 
  
 
Intro 
----0--0--1--3--------------------3--1------------3--1--3------ 
-1-----1---------1--1-1-1-------1-----3--1-----1----------1--1- 
-0-----0----------------0---0h2-------2-----2----------------0- 
-------2----------------2---------3------0-----------0-------2- 
----3------------3--3-3------------------------0----------3---- 
--------------------------------------------------------------- 
 
Verse     (4X)      (this diddie wa diddie) 
--0--0------------|----------------------3--1------------------ 
--1--1--1------1--|--3(4)-1--3(4)--1----------(4)3-1--1-------- 
--------0------0--|------------------2---------2------2--2----- 
--3---------3-----|------------------3-------------------3----- 
------------------|--1----------------------------------------- 
--------------------------------------------------------------- 
 
(this diddie wa diddie)            (I wish somebody..) 
-0-0-----------0-----3-0---------------3----1------------------ 
-----1---------1--1------1-------------0----0-----1--1--0--1--- 
-----0--0---0--0--0--------2-0-------0---------0--2--1--0--0--- 
-----2---------2---------------3-2-------------0-----------2--- 
-3--------3----------3-------------------------------------3--- 
-----------------------------------3------3-------------------- 
 
 C      F    C           G7         1st break     (2X)                              
--------------------3-3----1------|-----0---1-2-3-------------- 
---1----------------1-------------|--1------------1---1--1----- 
---0--0-2--2------0----------0----|---------------0---0--0----- 
---2-------3----2------------0----|---------------------------- 
-3------------3-----------------3-|--3------------3---3--3----- 
--------1----------------3--------|---------------------------- 
 
 
-------------------3--1-----------------------------3--1------- 
-1--(4)3--1------------(4)3-1--------1--(4)3--1--------(4)-3-1- 
-2-----------2----------2-----2--2---2----------2------------0- 
-3---3-------3-------------------3---3---3------3------------2- 
-------------------------------------------------------------3- 
----------------1------------------1------------1-------------- 
 
other fills                                        (4X) 
------------------------|---------------------|---------0------ 
------------------------|---------------------|-----1-1-------- 
------------------------|---------------------|---0------------ 
--1-0--0-1--0-1---0-1---|--------5---4---3----|---------------- 
-3----3----3----3-----3-|---------------------|--3------------- 
------------------------|---3-/-6---5---4---0-|---------------- 
 
                                     last break  
----------------------------------|---------------------------- 
----------------------------------|---------------------------- 
----------------------------------|---F-F#dim7-C-A7-D7-G7-G-C-- 
--------1--0------3---3---1---1---|---------------------------- 
---0--3------3--------------------|---------------------------- 
-1--------------1---1---2---2---3-|---------------------------- 

		  

Full key step upFull key step up
Half key step upHalf key step up
Half key step downHalf key step down
Full key step downFull key step down
hide glossary

See also:

tabs Rival Sons - Where I've Been tabs Rival Sons - Memphis Sun tabs Blind Boy Fuller - Careless Love tabs Stevie Ray Vaughn and Double Trouble - Life By The Drop tabs The Rev. Peyton's Big Damn Band - Worryin' Kind tabs Cowboy Bebop - Blue
e-chords

Other versions:

tabs Blind Blake - Diddie wa diddie
auto scroll beats size up size down change color hide chords drawings
tab show chords e-chords YouTube Clip e-chords hide all tabs e-chords go to top tab

share