Blind Blake

Hard Pushin' Papa

Blind Blake

tabs

by  ROWANE

save to print version add songbook text version e-mail correct tuner
chordsukulelecavacokeyboardtabbassdrumsharmonicaflute Guitar Pro
close

there isn't a video lesson for this song

chords

Hard Pushin' Papa

Year: 2003 - Album: All the Published Sides

	  		BLIND BLAKE: Hard Pushin' Papa 
_______________________________ 
 
 
This is a standard 12 bar blues in G, capoed on the 2nd fret. 
 
 D7         G                                  C 
-2--2---0-----------------------1--1---1--1-----3---------3---- 
-1--------------0----0----0-----0--0----------------1---------1 
---0-----0------0----0----0-----------------------0-----0----0- 
----------------0----0----0-----0-----0----0------------------- 
-----------------------------------------------3-----3-----3--- 
-2----2-----3-----3-----3----3-----3-----3--------------------- 
 
 G                     G7      D7     A7     D7    G  
-1--1-----------3--3---1---1---2--2----3------2--2-3--3-3-3-3-- 
-0--0----0---3-0--0---0---0----1--1----2------1--1-0--0-1-2-0-- 
-------3-------------------------2-------2------2-------------- 
---0-------0-----0-----0-------0-------------0--------3-2-1---- 
--------------------------------------0------------------------ 
-3-----3------3-----3-----3------------------------3--------3-- 
 
 

		  

Full key step upFull key step up
Half key step upHalf key step up
Half key step downHalf key step down
Full key step downFull key step down
auto scroll beats size up size down change color hide chords drawings
tab show chords e-chords YouTube Clip e-chords hide all tabs e-chords go to top tab

share