Blind Blake

Georgia bound

Blind Blake

tabs Beginner beginner

by  ROWANE

save to print version add songbook text version e-mail correct tuner
chordsukulelecavacokeyboardtabbassdrumsharmonicaflute Guitar Pro
close

there isn't a video lesson for this song

chords

Georgia bound

Year: 1990 - Album: All the Published Sides

	  		BLIND BLAKE: GEORGIA BOUND 
 
 
Intro:  
-3-----1-----------3-1--------------0-----1----0----3--1-------- 
-----0---0-------1-----3b4-3-1---1------------------------------ 
-------------0h2---------------2------1h2----------------------- 
---0-------0-----------------------2--------3--2------0--------- 
---------------------------------3---------------3-------------- 
-3--------------------------------------1-----------3----------- 
 
 
C F C                F C 
-----3-0-----3-0---------3-0--------------3-3--3--1--1--1----3--- 
---------1-------1------------1---------1----------------------1- 
-----------0-------2------------2-0-----------------0h2---------- 
---------------------3--------------3-2-----2--0--------------2-- 
------------------------------------------3------2-------2--3---- 
----------------------------------------------3------1--3-------- 
 
First break: 
          C  F     G   C7       F              
-0-1-2-3-----1-----3-1----------------------------------------- 
---------------3-1-----1---------3-1-3-1-------3-1-3-1--------- 
-------------------0-0-3-3--0-1-2--------0-1-2---------0------- 
-----------------3-----------------3-----3-------1------------- 
-----------------------3--------------------------------------- 
-------------1-----3------------1------1-----1-------1--------- 
 
---3-1-1-0-0-0-1--1-1-1-1-1-1-1-1------------------------------ 
---------1----------------------------1-3b4-1-----1------------ 
-----------------0-0-0-0-0-0-0-0--0-2---------2-0-------------- 
---2---0---2--------------------------------------------------- 
-3-------3----------------------------------------------------- 
-----3--------------------------------------------------------- 
 
Second Break: 
---------------------------------------------3--1-1------------ 
-1-1-1-1--1-1-1-1-----1-3b4-3b4-1-3b4-1-3-1-------------------- 
---------2--------0-2------------------------------------------ 
------------------------------------------------3---3---------- 
-3------------------------------------------------------------- 
---------------------------------------------1----1------------ 
 
-3-1-----3-1----3-0----3-0---3-0---3-0--------3-1-------------- 
-----1-------1------1------1-----1-----1--0-3-----3-0---------- 
--------------------------------------------------------------- 
-----3-------3------2------2-----2-----2----------------------- 
---------------3-------3-----3-----3--------------------------- 
-1-------1--------------------------------3-------------------- 
 
---------------------3--1--3----------------------------------- 
----1-3b4-3-1-----1------1-------------------------------------------- 
-0-2----------2-0-------------------------------------------------- 
--------------------2-----2------------------------------------ 
------------------3------3------------------------------------- 
---------------------3----------------------------------------- 
 
Third break: 
-------------------3-1------3-1--------3-1--------3-1-------------- 
-1-1---1-3b4-3b4-1------3b4-----1-1---------3b4--1-----3b4--1------ 
-----2--------------------------3-3-3------------------------------ 
--------------------------------2-2-2------------------------------ 
--------------------------------3-3-3------------------------------ 
-------------------------------3-------------------------------- 
 
--3-1---0-3--0-1-2-3-0---------------------------------1-0------ 
------1----------------1----------1--3b4-3-1-----1-------1---------- 
-------------------------2-0--0-2------------2-0---0-1-2----------- 
---2----------------------------------------------------------- 
-3-------3-----------------------------------------------3------ 
--------------------------------------------------------------- 
 
Fourth Break: 
-3--1-1---3--1-1--0---------0------3-1-------1-1----------1-------- 
------------------1----------1----1----1-----1-------------1----- 
-----------------------------3-0h2-------0h2------------------------ 
---2-------2---------0-1-2---2-------3-------3------4-3-2----------- 
-3-------3------3----------3------------------------------------- 
--------------------1-2-3----------1-----1-----1---5-4-3---1-------- 
 
-3-1------------3-0-----------0-1-0-3-3-------------------------- 
-----3-0-------1----3b4-1-----1-1-1------------------------------------ 
---------0--0h2-----------2-0--------------------------------------- 
------------------------------2-3-2---------------------------- 
----2-------------------------3-3-3-2-------------------------- 
-3----------1-----------------------3-------------------------- 
 
Outro: 
-----------------------------------------------------3-1-----------0-- 
-----1--3b4-3b4--1-----1--3b4--3b4-1-3b4-1-3-1-----1----3b4-1------1-- 
-0-2---------------0h2-------------------------0h2-----------2-0-2-3-- 
-------------------------------------------------------------------2-- 
-------------------------------------------------------------------3-- 
---------------------------------------------------------------------- 

		  

Full key step upFull key step up
Half key step upHalf key step up
Half key step downHalf key step down
Full key step downFull key step down
auto scroll beats size up size down change color hide chords drawings
tab show chords e-chords YouTube Clip e-chords hide all tabs e-chords go to top tab

share