Thursday

Introduction

Thursday

tabs

save to print version add songbook text version e-mail correct tuner
chordsukulelecavacokeyboardtabbassdrumsharmonicaflute Guitar Pro
close

there isn't a video lesson for this song

chords

Introduction

	  		
Tabbed: Jefe the Efe the ATD-I chap 
Tuning: Drop D 
 
 
These chords at the start of the song are played all the way until Streaks in the sky begins. Keep repeating. 
 
e|-------------------------------------| 
B|-------------------------------------| 
G|-------------------------------------| 
D|--7-7-7---10-10--7-7-7---1010-9--7-7-| 
A|--7-7-7---7--7---7-7-7---7-7--7?-7-7-| 
E|--7-7-7---7--7---7-7-7---7-7--7--7-7-| 
 
 
 
 
 
GUITAR 2  
at 00:19 at 00:39  
e|-------------|------------------|  
B|(12)---------|-(12)----(12)-----|  
G|----(7)-(12)-|-----(12)----(12)-|These are  
D|-------------|------------------|all harmonics  
A|-------------|------------------|  
E|-------------|------------------| 
 
 
 
Drums kick in and guitar goes.. 
 
e|--7---7-----------| 
B|----8---8---------| 
 
Then.. 
at 00:45  
e|-5-5--3-----0---0---5------|  
B|-5-5--3?0h1---3---5---5----|  
G|-5-5--4--------------------| x2 
D|-7-7--5--------------------|  
A|----------------------------|  
E|----------------------------| 
 
Then at 01:04 at 01:10 
 
e|-5---7---8---7---5---5---7---8---10---8--7------|  
B|--5---5---5---5---5---5---5---5----5---5--5-----| 
G|---5---5---5---5---5---5---5---5----5-----------| repeat 
D|------------------------|-----------------------| the picking 
A|------------------------|-----------------------|pattern alternates 
E|------------------------|-----------------------|so listen to the song to pick it up. The notes are all the same though so that doesn?t 
change. 
 
 
The last bit? This part speeds up gradually and keep repeating til you break into streaks in the sky. Ive also tabbed that one out. 
 Go back to Thursday Guitar tabs on this site. 
e|-------------------------------------------|  
B|-----3--3---3----------3-------------------|  
G|-0-0---0--0-(mute)------0-0-(not mute)-----|  
D|-------------------------------------------|  
A|-------------------------------------------|  
E|-------------------------------------------| 
 
I think that?s it. Thanks. 
 

		  

Full key step upFull key step up
Half key step upHalf key step up
Half key step downHalf key step down
Full key step downFull key step down
hide glossary

See also:

tabs Simon & Garfunkel - Sounds of silence tabs The Strokes - Juicebox tabs John Mayer - Belief tabs Guns N' Roses - Sweet Child o' mine tabs Guns N' Roses - November Rain tabs Foo Fighters - Everlong (acústico)
e-chords

Other versions:

tabs Thursday - Introduction
auto scroll beats size up size down change color hide chords drawings
tab show chords e-chords YouTube Clip e-chords hide all tabs e-chords go to top tab

share