Thursday

Streaks In The Sky

Thursday

tabs

save to print version add songbook text version e-mail correct tuner
chordsukulelecavacokeyboardtabbassdrumsharmonicaflute Guitar Pro
close

there isn't a video lesson for this song

chords

Streaks In The Sky

	  		Song: Streaks in the Sky 
Tabber: Jefe the efe the ATD-I chap 
Tuning: Standard EADGBe 
 
 
Wicked song but lead up to it ?Introduction? is even better. Ill try to post that one up some time today. Bye.  
P.s the songs not 100% ill admit that so any corrections welcome but still?please be generous when you rate it..its my best shot. Thanx. 
 
 
Intro: 2X 0:00-0:22 
e|--------------------------------------| 
B|--------------------------------------| 
G|-9---7-5----7/9----7-5--12-11-12-14---| 
D|-9-2-7-5--2------2-7-5----------------| 
A|-7-2-5-3--2-5/7--2-5-3--10--9-10-12---| 
E|---0------0------0--------------------| 
 
Verse 1: 4X 0:23-0:42 (Listen for palm muting) 
e|---------------------------------------------------| 
B|-------8--------8---------7--7-7-7-7---------------| 
G|-------9--------9---------7--7-7-7-7-7-7-5-5-4-4---| 
D|-------------------------------------7-7-5-5-4-4---| 
A|-7-7-7-7--7-7-7-7---5-5-5-5--5-5-5-5-5-5-3-3-2-2---| 
E|-0-0-0----0-0-0-----0-0-0--------------------------| 
 
Chorus: 1X 0:43-1:02 (... Let ring out) 
e|------------------------------------------------------------------| 
B|------------------------------------------------------------------| 
G|-5----12-11-12-14--5--12-11-12-14-12-11-7--5-12-11-12-14--5-4-5-7-| 
D|-5-----------------5-------------------------5-------------5-4-5-7| 
A|-3...-10-9-10-12--3...-10-9-10-12-10-9-5--3...-10--9-10-12-3-2-3-5| 
E|------------------------------------------------------------------| 
 
Play Intro Again: 2X 1:03-1:22 
 
Verse 2: 3X 1:24-1:33 (Listen for palm muting) 
e|-----------------------------------------| 
B|-----8---8-----7-----5-------------------| 
G|-----9---9-----7-----5---------------5---| 
D|------------------------3RD TIME ADD-5---| 
A|-7-7-7-7-7-5-5-5-3-3-3---------------3---| 
E|-0-0---0-0-0-0---0-0---------------------| 
 
Play Intro Again: 1X 1:34-1:44 
 
Play Verse 1 Again: 4X 1:45-2:03 
 
Play Chorus Again: 1X 
 
Sorry, I have no idea for the slow part 2:24-3:07 
 
Verse 3: 1X 3:07-3:38 (Listen for palm muting) 
e|----------------------------------------| 
B|----------------------------------------| 
G|----------------7-5---7-5---7-5---7-5---| 
D|-9-7-5--9-7-7-2-7-5-2-7-5-2-7-5-2-7-5---| 
A|-7-5-3--7-5-3-2-5-3-2-5-3-2-5-3-2-5-3---| 
E|--------------0-----0-----0-----0-------| 
 
Ending: 2X 3:38-4:30 (Listen for palm muting) 
e|------------------------------------------------------------------| 
B|------------------------------------------------------------------| 
G|---12-11-9-5----12-11-14-12-11-9----12-11-9-5---12-11-14-16-----11| 
D|-2------------2-------------------2-----------2---------End with--| 
A|-2-10--9-7-3--2-10--9-12-10--9-7--2-10--9-7-3-2-10--9-12-14------9| 
E|-0------------0-------------------0-----------0-------------------| 
 

		  

See also:

tabs Simon & Garfunkel - Sounds of silence tabs The Strokes - Juicebox tabs John Mayer - Belief tabs Guns N' Roses - Sweet Child o' mine tabs Guns N' Roses - November Rain tabs Foo Fighters - Everlong (acústico)
e-chords

Other versions:

tabs Thursday - Streaks In The Sky
auto scroll beats size up size down change color hide chords drawings
tab show chords e-chords YouTube Clip e-chords hide all tabs e-chords go to top tab

share