Thursday

Standing On The Edge Of Summer (ver. 2)

Thursday

tabs

save to print version add songbook text version e-mail correct tuner
chordsukulelecavacokeyboardtabbassdrumsharmonicaflute Guitar Pro
close

there isn't a video lesson for this song

chords

Standing On The Edge Of Summer (ver. 2)

	  		 
this is my first tab, so please correct my mistakes so i can improve... because i'm not sure of the strumming in some parts... thanks!!  
tuning: dropped d 
 
intro: 
guitar 1: 
|--------------------------------| 
|-2-------2-------5-------5------| 
|-2-------2-------6-------6------| 
|-0-(x6)--0-(x7)--4-(x6)--4-(x7)-| 
|-0-------0-------4-------4------| 
|-0-------0-------4-------4------| 
 
guitar 2: 
|--------------------------------| 
|---5------5---------------------| 
|----6------6--------------------| 
|--7------7----------------------| 
|-5------9-----------------------| 
|--------------------------------| 
 
then both guitars: 
|--------------------------------| 
|-2-------2-------5-------5------| 
|-2-------2-------6-------6------| 
|-0-(x6)--0-(x7)--4-(x6)--4-(x7)-| x2 
|-0-------0-------4-------4------| 
|-0-------0-------4-------4------| 
 
verse: 
guitar 2: 
|-00--5555--55--7775-------------| 
|-77--7777--55--5555-------------| 
|--------------------------------| 
|--------------------------------| 
|--------------------------------|x2 
|--------------------------------| 
 
 
|-00--5555--55-------------------| 
|-77--7777--55-------------------| 
|--------------------------------| 
|--------------------------------| 
|--------------------------------| 
|--------------------------------| 
 
pre-chorus: 
guitar 1: 
|--------------------------------| 
|-2-------2-------5-------5------| 
|-2-------2-------6-------6------| 
|-0-(x6)--0-(x7)--4-(x6)--4-(x7)-| 
|-0-------0-------4-------4------| 
|-0-------0-------4-------4------| 
 
guitar 2: 
|--------------------------------| 
|---5------5---------------------| 
|----6------6--------------------| 
|--7------7----------------------| 
|-5------9-----------------------| 
|--------------------------------| 
 
then both guitars: 
|--------------------------------| 
|--------------------------------| 
|--------------------------------| 
|-0-(x6)--0-(x7)--4-(x6)--4-(x7)-| x2 
|-0-------0-------4-------4------| 
|-0-------0-------4-------4------| 
 
chorus: 
|--------------------------------------------| 
|--------------------------------------------| 
|-11--9-----7-------14-------7-------14------| 
|-9---7-----5-------12-------5-------12------| 
|-9---7-----5-(x5)--12-(x5)--5-(x5)--12-(x5)-|x3 
|-9---7-----5-------12-------5-------12------| 
 
then: 
|----------------------| 
|----------------------| 
|----6-------6---------| 
|-0--x--000--x---------| 
|-0--4--000--4---------| 
|-0-----000------------| 
 
repeat verse, pre-chorus, 
then: 
|--------------------------------------------| 
|--------------------------------------------| 
|-11--9-----7-------14-------7-------14------| 
|-9---7-----5-------12-------5-------12------| 
|-9---7-----5-(x5)--12-(x5)--5-(x5)--12-(x5)-|x3 
|-9---7-----5-------12-------5-------12------| 
 
then: 
 
|--------------------------------| 
|--------------------------------| 
|--11------999--666--666---------| 
|--9-------777--xxx--xxx---------| 
|--9-(x3)--777--444--444---------| 
|--9-------777-------------------| 
 
guitar 1 and 2: repeat this 2 times 
you figure out the strumming here. sorry :( 
|--------------------------------| 
|--------------------------------| 
|-7--6--9------------------------| 
|-5--4--7------------------------| 
|-5--4--7------------------------| 
|-5--4--7------------------------| 
        p.m.  
|------------------------------------------------------------------------| 
|------------------------------------------------------------------------| 
|----6-------6-----6-------7\9\6-----6-------9-----6-------11\12\11------| 
|-0--x--000--x--0--x--000--xxxxx--0--x--000--x--0--x--000---x--x--x------| 
|-0--4--000--4--0--4--000--5\7\4--0--4--000--7--0--4--000---9\10\9-------| 
|-0-----000-----0-----000---------0-----000-----0-----000----------------| 
 
then: 
again you figure out the strumming here. sorry :( 
|--------------------------------| 
|--------------------------------| 
|-7--6--9------------------------| 
|-5--4--7------------------------| 
|-5--4--7------------------------| 
|-5--4--7------------------------| 
        p.m.  
 
guitar 1: 
|----------------------| 
|----------------------| 
|----6-------6---------| 
|-0--x--000--x---------| 
|-0--4--000--4---------| 
|-0-----000------------| 
 
guitar 2: 
|----------------------| 
|----------------------| 
|----6-------9---------| 
|-0--x--000--x---------| 
|-0--4--000--7---------| 
|-0-----000------------| 
 

		  

See also:

tabs Chuck Berry - Johnny B. Goode tabs The Offspring - Come Out and Play tabs Creed - With arms wide open tabs Jack Johnson - Do You Remember tabs Guns N' Roses - November Rain tabs Bon Jovi - Always
e-chords

Other versions:

tabs Thursday - Standing On The Edge Of Summer tabs Thursday - Standing On The Edge Of Summer (ver. 2) tabs Thursday - Standing On The Edge Of Summer (ver. 3)
auto scroll beats size up size down change color hide chords drawings
tab show chords e-chords YouTube Clip e-chords hide all tabs e-chords go to top tab

share