Thursday

home > Thursday

Understanding In A Car Crash (ver. 3) Tab

Thursday

Difficulty: nolevelnolevel

tuner correct add songbook print version text version save to e-mail
chordsukulelecavacokeyboardtabbassdrumsharmonicsflute Guitar Pro
chords

Understanding In A Car Crash (ver. 3)

  		Band: Thursday 
Song: Understanding(in a car crash) - Full colapse album. 
Tuning: Drop D 
 
 
 
FIRST LISTEN THE SONG 
 
GuitarA  Intro x4 (Distorsion) 
(chorus) 
E /------------------------------------------------------------------------------------------------------------------- 
B /--------------5h0-0---------5h0-0----------------------------5h0-0----------5h0-0-------------------------- 
G /------5h0-0---------5h0-0---------5h0--------------5h0-0----------5h0-0---------5h0--------------------- 
D /--77-----------------------------------------------33------------------------------------------------------------ 
A /------------------------------------------------------------------------------------------------------------------- 
D /------------------------------------------------------------------------------------------------------------------- 
 
 GuitarB  Intro x4 (Distorsion) 
  (chorus) 
E /------------------------------------------------------------------------------------------------------------------- 
B /------------------------------------------------------------------------------------------------------------------- 
G /------------------------------------------------------------------------------------------------------------------- 
D /--7777777777777777777777777777---------333333333333335333353353535353----------------- 
A /--7777777777777777777777777777---------333333333333333333333333333333----------------- 
D /--7777777777777777777777777777---------333333333333333333333333333333----------------- 
 
 
  GuitarB   Intro in the 3 time  If you can     (Distorsion) 
  (chorus) 
E /-------------------------------------------------------------------------------------------------------------------- 
B /---------------5h0-0----------5h0-0-------------------------- 5-0-0------------5-0-0------------------------- 
G /-------5h0-0---------5h0-0----------5h0----------------5-0-0------------5-0-0---------------5-0-------------------- 
D /--77------------------------------------------------333--------------333-----------------333----------------- 
A /----------------------------------------------------333--------------333-----------------333----------------- 
D /----------------------------------------------------333--------------333-----------------333----------------- 
 
==================================================================================================== 
   
 
  GuitarA   First Verse x5 (clean/ Flanger) 
E /-------------------------------------------------------------------------0------------------------------------------- 
B /------0---------8---------------5----------0---------------------0------0-----3--------3------3---------------------- 
G /---------5---------5----7--------0-----5----0---------------5--------------------5-------5------0------------------- 
D /-------------7--------7-----7-------7----------------------3-------3-------0--------0-------0------------------------ 
A /--0------------------------------------------------------------------------------------------------------------------ 
D /--------------------------------------------------------------------------------------------------------------------- 
 
 
   GuitarB   First Verse (Clean/litle Flanger) 
E /-12-------15-----------0-----------------------------------15-15-15---------------------------------------------- 
B /-----------------------12-----13-------------------------------------------------15-------12-------------------- 
G /----------------------------------------------------------------------------------------------------------------- 
A /----------------------------------------------------------------------------------------------------------------- 
D /----------------------------------------------------------------------------------------------------------------- 
A /----------------------------------------------------------------------------------------------------------------- 
D /----------------------------------------------------------------------------------------------------------------- 
 
GuitarB   First Verse (Clean/litle Flanger) 
E /--------15-15-------0-----------------------------------15-15-15---------------------------------------------- 
B /--------------------12-----13-------------------------------------------------15-------12--------------------- 
G /-------------------------------------------------------------------------------------------------------------- 
A /-------------------------------------------------------------------------------------------------------------- 
D /-------------------------------------------------------------------------------------------------------------- 
A /-------------------------------------------------------------------------------------------------------------- 
D /-------------------------------------------------------------------------------------------------------------- 
 
 
   Guitar B   First Verse x2 (Clean/litle Flanger) 
E /-------------------------------------------------------------------------------------------------------------------- 
B /-----------------------15------------------------------------------------------13-----12---------------------------- 
G /----------12--------------------------------------------------------12-----------12-----12------------------------- 
D /------14----------14-------------------------------------------12-------12------------------------------------------ 
A /--0-----------------------------------------------------------0----------------------------------------------------- 
D /-------------------------------------------------------------------------------------------------------------------- 
 
Chorus????? 
==================================================================================================== 
 
 
   GuitarA   Second Verse x2 (Clean/Flanger) 
E /--------------------------------------------------------------------------------------------------- 
B /-------------------------8-8-8-8-8----------------------------------8-8-8-8------------------------ 
G /---9--9--9--9--9-9-9-9-9-9-9-9-9-9---------10-10-10-10--9--9--9--9--9-9-9-9------------------------ 
D /--10-10-10-10--9-9-9-9-9-0-0-0-0-0---------10-10-10-10-10-10-10-10--0-0-0-0------------------------ 
A /---0----0---0--0---0---0--------------------0------0-------0-----0--------------------------------- 
D /--------------------------------------------------------------------------------------------------- 
 
 
    GuitarB    Second Verse x2 (Clean) 
E /----------------------------------------10---10--------------------------------------------10---10--------------- 
B /-----------------------------------8------9-----9-------------------------------------8-----9----9-------------- 
G /-------9-------------9-------------9--------8-----8-----10---------------9------------9------8----8------------- 
D /------10------------10-------------0--------------------10--------------10------------0------------------------- 
A /-------0-------------0-----------------------------------0---------------0-------------------------------------- 
D /---------------------------------------------------------------------------------------------------------------- 
 
    GuitarA     Second Verse x2 (Clean/Flanger) 
E /-------------------------------------------------------------------------0--------------------------------------- 
B /------0---------8---------------5----------0---------------------0------0-----3--------3------3------------------ 
G /---------5---------5----7--------0-----5----0---------------5--------------------5-------5------0--------------- 
D /-------------7--------7-----7-------7----------------------3-------3-------0--------0-------0-------------------- 
A /--0-------------------------------------------------------------------------------------------------------------- 
D /----------------------------------------------------------------------------------------------------------------- 
 
 
   GuitarB      Second Verse x2 (Clean/Litle Flanger) 
E /------------------------------------------------------------------------------------------------------------------- 
B /-------------------------------------------------------------------------------13-----12--------------------------- 
G /----------12----------15-------------------------------------------12-----------12-----12------------------------ 
D /------14----------14-------------------------------------------12-------12----------------------------------------- 
A /--0-----------------------------------------------------------0---------------------------------------------------- 
D /------------------------------------------------------------------------------------------------------------------- 
 
 
    GuitarA    Second Verse x4  (Clean/Flanger) 
E /-------------------------------------------------------0-0-0-0-0-0--------------------------------------- 
B /---8-8-8-8-8-8--6-6-6-6-6-6--0-0-0-0-0-0--3-3-3-3-3-3--0-0-0-0-0-0--------------------------------------- 
G /---x-x-x-x-x-x--5-5-5-5-5-5--5-5-5-5-5-5--5-5-5-5-5-5--5-5-5-5-5-5--------------------------------------- 
D /---7-7-7-7-7-7--7-7-7-7-7-7--3-3-3-3-3-3--0-0-0-0-0-0---------------------------------------------------- 
A /--------------------------------------------------------------------------------------------------------- 
D /--------------------------------------------------------------------------------------------------------- 
 
 
      GuitarB   Second Verse x4 (Clean/Litle Flanger) 
E /--0-0-0-0-0-0-0-0-0-0-0-0-0-0-0-0-0-0-0-0-0-0-0-0-0-0-0-0-0-0-0-0---------------------------------------- 
B /--8-8-8-8-8-8-8-6-6-6-6-6-6-6-1-1-1-1-1-1-3-3-3-3-3-3-0-0-0-0-0-0---------------------------------------- 
G /--------------------------------------------------------------------------------------------------------- 
D /--------------------------------------------------------------------------------------------------------- 
A /--------------------------------------------------------------------------------------------------------- 
D /--------------------------------------------------------------------------------------------------------- 
Chorus??? 
 
=========================================================================================================== 
 
GuitarA    3 Verse x3 (Clean/Flanger) 
E /------------------------------------------------------------------------------------------------- 
B /-------------------------8-8-8-8-8----------------------------------8-8-8-8---------------------- 
G /---9--9--9--9--9-9-9-9-9-9-9-9-9-9---------10-10-10-10--9--9--9--9--9-9-9-9---------------------- 
D /--10-10-10-10--9-9-9-9-9-0-0-0-0-0---------10-10-10-10-10-10-10-10--0-0-0-0---------------------- 
A /---0--0-----0----0-0---0--------------------0-----0-----0-----0--0------------------------------- 
D /------------------------------------------------------------------------------------------------- 
 
GuitarB    3 Verse x2 (Clean) 
E /----------------------------------------10---10--------------------------------------------10---10--------------- 
B /-----------------------------------8------9-----9--------------------------------------8-----9----9-------------- 
G /-------9-------------9-------------9-------8-----8----- 10---------------9-------------9------8----8------------- 
D /------10------------10-------------0--------------------10--------------10-------------0------------------------- 
A /-------0-------------0-----------------------------------0---------------0--------------------------------------- 
D /----------------------------------------------------------------------------------------------------------------- 
 
GuitarB   3 Verse x2 (Litle Distorsion) 
E /------------------------------------------------------------------------------------------------------- 
B /------------------------------------------------------------------------------------------------------- 
G /--14-14-14-14-14-14-16-16-16-16-16-16-17-17-17-17-17-17-19-19-19-19-19-19------------------------------ 
D /---x--x--x--x--x--x--x--x--x--x--x--x--x--x--x--x--x--x--x--x--x--x--x--x------------------------------ 
A /--12-12-12-12-12-12-14-14-14-14-14-14-15-15-15-15-15-15-17-17-17-17-17-17------------------------------ 
D  /------------------------------------------------------------------------------------------------------ 
 
============================================================================================================== 
 
 
GuitarA   Interlude x1 (Clean/Flanger) 
E /------------------------------------------------------------------------------------------------------------------ 
B /--------------------------------------8-8-8---8-8-8---8-8-8---8-8-8--------------------------------(8-8-8--8-8-8)- 
G /---9--9--9---9--9--9--9-9-9--9-9-9----9-9-9---9-9-9---9-9-9---9-9-9--10-10-10--10-10-10---9--9--9--(9-9-9--9-9-9)- 
D /--10-10-10--10-10-10--9-9-9--9-9-9----0-0-0---0-0-0---0-0-0---0-0-0--10-10-10--10-10-10--10-10-10--(0-0-0--0-0-0)x2 
A /---0--0--0---0--0--0--0-0-0--0-0-0------------------------------------0--0--0---0--0--0---0--0--0----------------- 
D /------------------------------------------------------------------------------------------------------------------ 
 
 
GuitarB  Interlude   x4 (Litle Distorsion)) 
E /----15-----------------15--------------------------------------------------------- 
B /----------12--13---------12-13---------------------------------------------------- 
G /---------------------------------------------------------------------------------- 
D /---------------------------------------------------------------------------------- 
A /---------------------------------------------------------------------------------- 
D /----------------------------------------------------------------------------------- 
 
========================================================================================================================== 
 
 
GuitarA    Outro x4 (Distorsion) 
E /---------------------------------------------------------------------------------------------------------------------------------------- 
B /-----------------------------------------------------3-3-3-3-3-3-3-3-------------------------------------------------------------------- 
G /-----------/14-14-14-14--------------/17-17-17-17----2-2-2-2-2-2-2-2-------------------------------------------------------------------- 
D /--7-7-7-7--/x--x---x--x-----3-3-3-3---x--x--x--x-----0-0-0-0-0-0-0-0-------------------------------------------------------------------- 
A /--7-7-7-7--/12-12-12-12-----3-3-3-3--/15-15-15-15----0-0-0-0-0-0-0-0-------------------------------------------------------------------- 
D /--7-7-7-7-------------------3-3-3-3------------------0-0-0-0-0-0-0-0-------------------------------------------------------------------- 
 
 
GuitarB    Outro x2 (Distorsion) 
E /---------------------------------------------------------------------------------- 
B /---------------------------------------------------------------------------------- 
G /--/14-14-14-14-14/12-12-12-12-12//-16-16-16-16-16/-14-14-14-14-14----------------- 
D /----x--x--x--x--x--x--x--x--x--x----x--x--x--x--x---x--x--x--x--x----------------- 
A /--/12-12-12-12-12/10-10-10-10-10//-14-14-14-14-14/-12-12-12-12-12----------------- 
D /--------------------------------------------------------------------------------- 
 
GuitarB    Outro x2 (Distorsion) 
E /---------------------------------------------------------------------------------- 
B /---------------------------------------------------------------------------------- 
G /--//14-14-14-14-14/-16-16-16-16-16/-17-17-17-17-17/-19-19-19-19-19---------------- 
D /-----x--x--x--x--x---x--x--x--x--x---x--x--x--x--x---x--x--x--x--x---------------- 
A /--//12-12-12-12-12/-14-14-14-14-14/-15-15-15-15-15/-17-17-17-17-17---------------- 
D /---------------------------------------------------------------------------------- 
 
=============================================================================================================================== 
 
GuitarA    Outro Breack x4 (Distorsion) 
E /---------------------------------------------------------------------------------- 
B /---------------------------------------------------------------------------------- 
G /---------------------------------------------------------------------------------- 
D /--7-7-7--7-7-7--3-3-3--3-3-3--0-0-0--0-0-0--0-0-0--0-0-0-------------------------- 
A /--7-7-7--7-7-7--3-3-3--3-3-3--0-0-0--0-0-0--0-0-0--0-0-0-------------------------- 
D /--7-7-7--7-7-7--3-3-3--3-3-3--0-0-0--0-0-0--0-0-0--0-0-0-------------------------- 
 
GuitarB   Outro Breack x8   (Distorsion/Rare Effect) 
E /---15------------15--------------------------------------------------------------- 
B /-------12--13------12-13---------------------------------------------------------- 
G /---------------------------------------------------------------------------------- 
D /---------------------------------------------------------------------------------- 
A /---------------------------------------------------------------------------------- 
D /---------------------------------------------------------------------------------- 
 
GuitarA   End Breack (Distorsion) 
E /------------------------------- 
B /------------------------------- 
G /------------------------------- 
D /--9---------------------------- 
A /--7---------------------------- 
D /--7---------------------------- 
 
GuitarB   End Breack (Distorsion/Rare Effect) 
E /------------------------------ 
B /--12-------------------------- 
G /------------------------------ 
D /------------------------------ 
A /------------------------------ 
D /------------------------------ 
 
End                          PLEASE RATE AGAIN 
 

	  

Full key step upFull key step up
Half key step upHalf key step up
Half key step downHalf key step down
Full key step downFull key step down
Search Paypal
auto scroll beats size up size down change color hide chords drawings
tab show chords e-chords YouTube Clip e-chords hide all tabs e-chords go to top tab