Thursday

Standing On The Edge Of Summer

Thursday

tabs

save to print version add songbook text version e-mail correct tuner
chordsukulelecavacokeyboardtabbassdrumsharmonicaflute Guitar Pro
close

there isn't a video lesson for this song

chords

Standing On The Edge Of Summer

	  		 
Intro guitar 1 
E|-----------------------------| 
B|-222222-222222-555555-555555-| 
G|-222222-222222-444444-444444-| 
D|-000000-000000-444444-444444-| 
A|-000000-000000-444444-444444-| 
D|-000000-000000-444444-444444-| 
 
Intro guitar 2 
E|-----------------------------| 
B|----5-------------5----------| 
G|------6-------------6--------| 
D|-00------------44------------| 
A|-----------------------------| 
D|-----------------------------| 
 
E|-9999-7777---------------| 
B|-----------9999-10101010-| 
G|-------------------------| 
D|-------------------------| 
A|-------------------------| 
D|-------------------------| 
 
starting chorus-guitar 1 
E|-----------------------------| 
B|-222222-222222-555555-555555-| 
G|-222222-222222-444444-444444-| 
D|-000000-000000-444444-444444-| 
A|-000000-000000-444444-444444-| 
D|-000000-000000-444444-444444-| 
 
guitar 1 
E|------------------------------| 
B|------------------------------| 
G|------------------------------| 
D|-999999-777777-55555555555555-| 
A|-999999-777777-55555555555555-| 
D|-999999-777777-55555555555555-| 
 
guitar 2 
E|-----12-----12-1212121212121010109999-| 
B|---10-----10--------------------------| 
G|-11-----11----------------------------| 
D|--------------------------------------| 
A|--------------------------------------| 
D|--------------------------------------| 
 
end of first chorus...Both guitars  
E|-------------| 
B|-------------| 
G|-----6-----6-| 
D|-000-x-000-x-| 
A|-000-4-000-4-| 
D|-000---000---| 
 
Verse: it?s kindof hard because they use alot of phase shifting and flange. 
E|-------------| 
B|-------------| 
G|-------------| 
D|-66666-22222-| 
A|-44444-00000-| 
D|-------------| 
 
chorus guitar 1   
E|-----------| 
B|-5555-2222-| 
G|-4444-2222-| 
D|-4444-0000-| 
A|-4444-0000-| 
D|-4444-0000-| 
guitar 2 
E|-----------------------------| 
B|----5-------------5----------| 
G|------6-------------6--------| 
D|-00------------44------------| 
A|-----------------------------| 
D|-----------------------------| 
 
guitar 1 
E|------------------------------| 
B|------------------------------| 
G|------------------------------| 
D|-999999-777777-55555555555555-| 
A|-999999-777777-55555555555555-| 
D|-999999-777777-55555555555555-| 
 
 
guitar 2 
E|-----12-----12-1212121212121010109999-| 
B|---10-----10--------------------------| 
G|-11-----11----------------------------| 
D|--------------------------------------| 
A|--------------------------------------| 
D|--------------------------------------| 
 
the after chorus 
both guitars x2 
E|---------------------------------------------------| 
B|---------------------------------------------------| 
G|--------------------------6-----6------6-----7/9-6-| 
D|-555555444444-4444444-000-X-000-X--000-X-000-X/X-X-| 
A|-555555444444-4444444-000-4-000-4--000-4-000-5/7-4-| 
D|-555555444444-4444444-000---000----000---000-------| 
		 
                								 
E|--------------------------------------------------------| 
B|--------------------------------------------------------| 
G|--------------------------6-----9------6------11/12-/11-| 
D|-555555444444-4444444-000-X-000-X--000-X-000--X-/X--/x--| 
A|-555555444444-4444444-000-4-000-7--000-4-000--9-/11-/9--| 
D|-555555444444-4444444-000---000----000---000------------| 
	 
end goes like this               						- 
guitar 1 
E|-------------| 
B|-------------| 
G|-----6-----6-| 
D|-000-x-000-x-| 
A|-000-4-000-4-| 
D|-000---000---| 
 
guitar 2 
E|--------------| 
B|--------------| 
G|-----6-----9--| 
D|-000-x-000-x--| 
A|-000-4-000-7--| 
D|-000---000----| 
 

		  

See also:

tabs Simon & Garfunkel - Sounds of silence tabs The Strokes - Juicebox tabs John Mayer - Belief tabs Guns N' Roses - Sweet Child o' mine tabs Guns N' Roses - November Rain tabs Foo Fighters - Everlong (acústico)
e-chords

Other versions:

tabs Thursday - Standing On The Edge Of Summer tabs Thursday - Standing On The Edge Of Summer (ver. 2) tabs Thursday - Standing On The Edge Of Summer (ver. 3)
auto scroll beats size up size down change color hide chords drawings
tab show chords e-chords YouTube Clip e-chords hide all tabs e-chords go to top tab

share