Thursday

Cross Out The Eyes (ver. 3)

Thursday

tabs

save to print version add songbook text version e-mail correct tuner
chordsukulelecavacokeyboardtabbassdrumsharmonicaflute Guitar Pro
close

there isn't a video lesson for this song

chords

Cross Out The Eyes (ver. 3)

	  		. - palm mute  
s - slide  
h - hammer  
p - pull off  
 
INTRO   
guitar 1 x2  
x3 then play  
e|--------------------------------|-------------------------------------------|  
B|-5-5-6-5-5-5-5-6-5-5-5-5-6-6-5-6|-6-6-6-6-6-6-6-8--8-8-8-8-8-8-8------------|  
G|-5-5-5-5-5-5-5-5-5-5-5-5-5-5-5-5|-5-5-5-5-5-5-5-5--5-5-5-5-5-5-5------------|  
D|--------------------------------|-------------------------------------------|  
A|--------------------------------|-------------------------------------------|  
E|--------------------------------|-------------------------------------------|  
. . . . . . . .  
guitar 2  
x3 then play  
e|--------------------------------|-------------------------------------------|  
B|-5-5-6-5-5-5-5-6-5-5-5-5-6-6-5-6|-------------------------------------------|  
G|-5-5-5-5-5-5-5-5-5-5-5-5-5-5-5-5|-5-5-5-5-5-5-5-5-5-5-5-5-5-5-5-5-----------|  
D|--------------------------------|-5-5-5-5-5-5-5-5-5-5-5-5-5-5-5-5-----------|  
A|--------------------------------|-3-3-3-3-3-3-3-3-3-3-3-3-3-3-3-3-----------|  
E|--------------------------------|-------------------------------------------|  
. . . . . . . .  
PRE CHORUS   
guitar 1 x2  
e|---------------------------------------------------------------------------|  
B|---------------------------------------------------------------------------|  
G|-------------9-9-9-10109-9-------------------------------------------------|  
D|-0---0--0-0----------------0---0--0-0--8-8-8-8-8-s-10-10-------------------|  
A|-0---0--0-0--7-7-7-8-8-7-7-0---0--0-0--8-8-8-8-8-s-10-10-------------------|  
E|-0---0--0-0----------------0---0--0-0--8-8-8-8-8-s-10-10-------------------|  
 
guitar 2 x2  
e|---------------------------------------------------------------------------|  
B|---------------------------------------------------------------------------|  
G|-------------9-9-9-10109-9-------------11-11-11-11-11-s-12-12--------------|  
D|-0---0--0-0----------------0---0--0-0--------------------------------------|  
A|-0---0--0-0--7-7-7-8-8-7-7-0---0--0-0--8--8--8--8--8--s-10-10--------------|  
E|-0---0--0-0----------------0---0--0-0--------------------------------------|  
 
CHORUS  
guitar 1 x1  
e|---------------------------------------------------------------------------|  
B|---------------------------------------------------------------------------|  
G|---------------------------------------------------------------------------|  
D|-0~---8-8-8-0~---8-8-8-0~---8-8-8-8-s-10-10-10-10--10-10-------------------|  
A|-0~---8-8-8-0~---8-8-8-0~---8-8-8-8-s-10-10-10-10--10-10-------------------|  
E|-0~---8-8-8-0~---8-8-8-0~---8-8-8-8-s-10-10-10-10--10-10-------------------|  
 
continued...  
e|---------------------------------------------------------------------------|  
B|---------------------------------------------------------------------------|  
G|------111111-----7-7-7------5-5-5-5-s-7-7-7-7--7-7-------------------------|  
D|-0~---8-8-8-0~---------0~--------------------------------------------------|  
A|-0~---8-8-8-0~---5-5-5-0~---3-3-3-3-s-5-5-5-5--5-5-------------------------|  
E|-0~---8-8-8-0~---------0~--------------------------------------------------|  
 
guitar 2 x2  
e|---------------------------------------------------------------------------|  
B|---------------------------------------------------------------------------|  
G|------111111-----111111-----111111-9-s-11-111111s-9--9-9-------------------|  
D|-0~---8-8-8-0~---8-8-8-0~---8-8-8------------------------------------------|  
A|-0~---8-8-8-0~---8-8-8-0~---8-8-8--7-s-8--8-8-8-s-7--7-7-------------------|  
E|-0~---8-8-8-0~---8-8-8-0~---8-8-8------------------------------------------|  
 
PART AFTER CHORUS  
guitar 1 - Ring out until next part  
e|---------------------------------------------------------------------------|  
B|---------------------------------------------------------------------------|  
G|---------------------------------------------------------------------------|  
D|-0~~~~---------------------------------------------------------------------|  
A|-0~~~~---------------------------------------------------------------------|  
E|-0~~~~---------------------------------------------------------------------|  
 
guitar 2  
e|---------------------------------------------------------------------------|  
B|-------------------(7)----------------------------(7)----------------------|  
G|--------(5)--------------------(5)------(5)-------------------(5)------(5)-|  
D|-0~------------(5)-----------------(5)--------(5)-----------------(5)------|  
A|-0~------------------------(5)----------------------------(5)--------------|  
E|-0~------------------------------------------------------------------------|  
 
continued...  
e|---------------------------------------------------------------------------|  
B|-----(7)----------------(7)~-----------------------------------------------|  
G|----------------(5)--------------------------------------------------------|  
D|-(5)----------------(5)----------------------------------------------------|  
A|------------(5)------------------------------------------------------------|  
E|---------------------------------------------------------------------------|  
 
VERSE 1   
guitar 1 strum chords  
e|---------------------------------------------------------------------------|  
B|---------------------------------------------------------------------------|  
G|---------------------------------------------------------------------------|  
D|-3---0---8---0---3---0---8---10--------------------------------------------|  
A|-3---0---8---0---3---0---8---10--------------------------------------------|  
E|-3---0---8---0---3---0---8---10--------------------------------------------|  
 
guitar 2  
e|---------------------------------------------------------------------------|  
B|---------------------------------------------------------------------------|  
G|-11-11-11119-9-9-9-1111119--9--9-9-111111119-9-9-11-11-11119-9-9-9-111111--|  
D|---------------------------------------------------------------------------|  
A|-8--8--8-8-7-7-7-7-8-8-8-7--7--7-7-8-8-8-8-7-7-7-8--8--8-8-7-7-7-7-8-8-8---|  
E|---------------------------------------------------------------------------|  
continued...  
e|---------------------------------------------------------------------------|  
B|---------------------------------------------------------------------------|  
G|-9--9--9-9-111111119-9-9-11-11-11119-9-9-9-11111112--12--12-12-12-12-12-12-|  
D|---------------------------------------------------------------------------|  
A|-7--7--7-7-8-8-8-8-7-7-7-8--8--8-8-7-7-7-7-8-8-8-10--10--10-10-10-10-10-10-|  
E|---------------------------------------------------------------------------|  
continued...  
e|---------------------------------------------------------------------------|  
B|---------------------------------------------------------------------------|  
G|-12-12-12-14-14-14-14-14-14-14-14-14-14-14-14-14-14-14-14-12-12-12-12-12-12|  
D|---------------------------------------------------------------------------|  
A|-10-10-10-12-12-12-12-12-12-12-12-12-12-12-12-12-12-12-12-10-10-10-10-10-10|  
E|---------------------------------------------------------------------------|  
continued...  
e|---------------------------------------------------------------------------|  
B|-----------------------slowly bend last few chords-------------------------|  
G|-12-12-12-12-12-12-12-12-12-12---------------------------------------------|  
D|---------------------------------------------------------------------------|  
A|-10-10-10-10-10-10-10-10-10-10---------------------------------------------|  
E|---------------------------------------------------------------------------|  
 
VERSE 2   
guitar 1 x4 play this on the 4th time  
e|----------------3-----------------|----------------------------------------|  
B|---11-----------------------------|---11-----------------------------------|  
G|----------------------------------|----------------------------------------|  
D|-8----8~------0---0~--------------|-8----8~--8-8-10-10-10-10-10-10-10-10---|  
A|-8----8~------0---0~--------------|-8----8~--8-8-10-10-10-10-10-10-10-10---|  
E|-8----8~------0---0~--------------|-8----8~--8-8-10-10-10-10-10-10-10-10---|  
 
guitar 2 x4  
e|---0h1-0h1-0h1-0h1-0h1-0h1-0h1-----0h1-0h1-0h1-0h1-0h1-0h1-0h1-------------|  
B|---------------------------------------------------------------------------|  
G|---------------------------------------------------------------------------|  
D|---------------------------------------------------------------------------|  
A|-1-------------------------------------------------------------------------|  
E|---------------------------------0-----------------------------------------|  
 
play PRE CHORUS  
 
play CHORUS  
PART AFTER SECOND CHORUS "CROSS OUT THE EYES!!..."  
 
guitar 1 x2   
e|-----------------------------------------------------|---------------------|  
B|-----------------------------------------------------|---------------------|  
G|-------------------------------9s11--11-11-11s-9--9-9|---------------------|  
D|-0---8-8-8----11-11-11---8-8-8-----------------------|-0~------------------|  
A|-0---8-8-8----8--8--8----8-8-8-7s8---8--8--8-s-7--7-7|-0~------------------|  
E|-0---8-8-8----8--8--8----8-8-8-----------------------|-0~------------------|  
 
guitar 2  
e|---------------------------------------------------------------------------|  
B|---------------------------------------------------------------------------|  
G|---------------------------------------------------------------------------|  
D|-0---8-8-8----11-11-11---8-8-8-8-s-10-10-10-10--10-10----------------------|  
A|-0---8-8-8----8--8--8----8-8-8-8-s-10-10-10-10--10-10----------------------|  
E|-0---8-8-8----8--8--8----8-8-8-8-s-10-10-10-10--10-10----------------------|  
continued...  
e|----------------------------------------------|----------------------------|  
B|----------------------------------------------|----------------------------|  
G|-----11-11-11---7-7-7---5-5-5-5s7-7-7-7s5--5-5|----------------------------|  
D|-0---8--8--8----------------------------------|-0~-------------------------|  
A|-0---8--8--8----5-5-5---3-3-3-3s5-5-5-5s3--3-3|-0~-------------------------|  
E|-0---8--8--8----------------------------------|-0~-------------------------|  
 
BRIDGE  
guitar 1 x5  
e|-----0---------0---------3-----3s5-3--1p0---0------------------------------|  
B|-------1---------1---------1--------------1--------------------------------|  
G|---------2---------2---------2---------------------------------------------|  
D|---------------------------------------------------------------------------|  
A|-0~--------0~--------0~----------------------------------------------------|  
E|---------------------------------------------------------------------------|  
 
guitar 2 x4  
e|-3--1----------------------------------------------------------------------|  
B|-------0--1--1s3--1--0~----------------------------------------------------|  
G|---------------------------------------------------------------------------|  
D|---------------------------------------------------------------------------|  
A|---------------------------------------------------------------------------|  
E|---------------------------------------------------------------------------|  
 
play chorus twice  
 
OUTRO  
guitar 1 x2  
e|---------------------------------------------------------------------------|  
B|---------------------------------------------------------------------------|  
G|---------------------------------------------------------------------------|  
D|-----7---7---7---3-3-3-3-3-3-3-3------7---7---7---0-0-0-0-0-0-0-0----------|  
A|-5---5---5---5---3-3-3-3-3-3-3-3--5---5---5---5---0-0-0-0-0-0-0-0----------|  
E|-5---5---5---5---3-3-3-3-3-3-3-3--5---5---5---5---0-0-0-0-0-0-0-0----------|  
 
guitar 2 x2  
e|---------------------------------------------------------------------------|  
B|---------------------------------------------------------------------------|  
G|-----------------11-11-11-11-11s-9-9-9--7-7-7-7s5-5------------------------|  
D|-----7---7---7-------------------------------------------------------------|  
A|-5---5---5---5---8--8--8--8--8-s-7-7-7--5-5-5-5s3-3-0----------------------|  
E|-5---5---5---5--------------------------------------0----------------------|  
 
both guitar end on...  
e|---------------------------------------------------------------------------|  
B|---------------------------------------------------------------------------|  
G|-7~------------------------------------------------------------------------|  
D|-7~------------------------------------------------------------------------|  
A|-5~------------------------------------------------------------------------|  
E|-5~------------------------------------------------------------------------| 
 

		  

See also:

tabs Chuck Berry - Johnny B. Goode tabs The Offspring - Come Out and Play tabs Creed - With arms wide open tabs Jack Johnson - Do You Remember tabs Guns N' Roses - November Rain tabs Bon Jovi - Always
e-chords

Other versions:

tabs Thursday - Cross Out The Eyes tabs Thursday - Cross Out The Eyes (ver. 2) tabs Thursday - Cross Out The Eyes (ver. 3)
auto scroll beats size up size down change color hide chords drawings
tab show chords e-chords YouTube Clip e-chords hide all tabs e-chords go to top tab

share