Thursday

Dying In New Brunswick

Thursday

tabs

save to print version add songbook text version e-mail correct tuner
chordsukulelecavacokeyboardtabbassdrumsharmonicaflute Guitar Pro
close

there isn't a video lesson for this song

chords

Dying In New Brunswick

	  		Guitarists: Steve Pedulla and Tom Keely 
 
This is a great song, and easy as well. I believe this tab is 99.9% accurate (the -.1 comes from the intro, simply because of it's intricate complexity)  
Comments? Email me at [email protected] or IM me on Toendtherapturex. Can't find a tab for an emo/hardcore song? Contact me and I'll do my best to tab it for you. 
 
TUNING- D A D G B E 
 
KEY:  
b  = Bend 
r  = Release bend 
Pm = Palm Mute 
Am = After-Mute (Palm mute chord AFTER it is played) 
/  = Slide Up 
\  = Slide down 
h  = Hammer on 
p  = Pull-off 
 
Guitar One: 
 
Intro 
 
a) 
 
E|-----------------------------------| 
B|-----------------------------------| 
G|-7---7-----7-----7-----7-----7-----| 
D|---7-----7---7-----7-----7-----7---| x2 
A|-----------------------------------| 
D|-0-----0-------0-----0-----0-----0-| 
 
b) 
 
E|-----------------------------------| 
B|-----------------------------------| 
G|--11-----11-----11---9-----9-----9-| 
D|-----9------9----------8-----8-----| 
A|-----------------------------------| 
D|-9-----9------9----8-----8-----8---| 
 
c) 
 
E|-------------------------------------| 
B|-------------------------------------| 
G|-------------------------------------| 
D|-------------------------------------| 
A|-5-5-5-5-7-7-7-7-9-9-9-9-10-10-10-10-| 
D|-------------------------------------| 
 
(Repeat Intro part A {once}) 
 
d) 
 
E|------------------------------------| 
B|------------------------------------| 
G|------------------------------------| 
D|-----9---12----12-----8---12-----12-| 
A|---9---------9------8----------8----| 
D|-9-----9---9------8-----8----8------| 
 
e) 
 
E|---------------------------------| 
B|---------------------------------| 
G|---------------------------------| 
D|-----7-----5-----7-----5-----5h7-| 
A|---0-----0-----0-----0-----0-----| 
D|-0-----0-----0-----0-----0-------| 
 
f) 
 
E|-------------------------| 
B|-------------------------| 
G|-------------------------| 
D|-----9-12--------8-12----| 
A|---9------12---8------12-| 
D|-9-----------8-----------| 
 
(Repeat Intro/Verse part C) 
 
{distortion} 
 
E|---------------------------------| 
B|---------------------------------| 
G|---------------------------------| 
D|-9-9-9-9-9-9-9-9-8-8-8-8-8-8-8-8-| 
A|-9-9-9-9-9-9-9-9-8-8-8-8-8-8-8-8-| 
D|-9-9-9-9-9-9-9-9-8-8-8-8-8-8-8-8-| 
Pm   : : : : : : :   : : : : : : :  
 
Chorus: 
 
a) 
 
E|----------------------------| 
B|----------------------------| 
G|----------------------------| 
D|-0----0-0-0-0---0---0-0-0-0-| x2 
A|-0----0-0-0-0---0---0-0-0-0-| 
D|-0----0-0-0-0---0---0-0-0-0-| 
 
b) 
 
E|-------------------------| 
B|-------------------------| 
G|-------------------------| 
D|-9---9-9-8-8-8-8-8-8-8-8-| 
A|-9---9-9-8-8-8-8-8-8-8-8-| 
D|-9---9-9-8-8-8-8-8-8-8-8-| 
 
(Chorus part A and B played twice) 
 
c) 
 
E|---------------------------------------------| 
B|---------------------------------------------| 
G|---------------------------------------------| 
D|-0-0-0-0-0-9---9-9-7---7-7-7-5---5-5-5-5-5-5-| 
A|-0-0-0-0-0-9---9-9-7---7-7-7-5---5-5-5-5-5-5-| 
D|-0-0-0-0-0-9---9-9-7---7-7-7-5---5-5-5-5-5-5-| 
 
d) 
 
E|-------------------------------------------------------------------| 
B|-------------------------------------------------------------------| 
G|-------------------------------------------------------------------| 
D|-0-0-0-0---0-0-0-0---0-0-0-0---0-0-0-0---9---9-9-7---7-7-5---5-5-5-| 
A|-0-0-0-0---0-0-0-0---0-0-0-0---0-0-0-0---9---9-9-7---7-7-5---5-5-5-| 
D|-0-0-0-0---0-0-0-0---0-0-0-0---0-0-0-0---9---9-9-7---7-7-5---5-5-5-| 
Pm : : : :   : : : :   : : : :   : : : : 
 
(Repeat intro & chorus again, but replace Chorus part d with this:) 
 
E|------------------------------------------------------| 
B|------------------------------------------------------| 
G|------------------------------------------------------| 
D|-0-0-0-0---0-0-0-0---0-0-0-0---0-0-0-0-----0---0-0-0--| 
A|-0-0-0-0---0-0-0-0---0-0-0-0---0-0-0-0-----0---0-0-0--| 
D|-0-0-0-0---0-0-0-0---0-0-0-0---0-0-0-0-----0---0-0-0--| 
Pm : : : :   : : : :   : : : :   : : : :  
 
Bridge: 
 
a) 
 
E|---------------------------------------------| 
B|---------------------------------------------| 
G|-7-7-7-7-7-----------------------------------| 
D|----------------8---8-8-8-/-10---10-10-10-10-| 
A|-5-5-5-5-5------8---8-8-8-/-10---10-10-10-10-| 
D|----------------8---8-8-8-/-10---10-10-10-10-| 
 
b) 
 
E|---------------13------------------------------| 
B|-----------------------------------------------| 
G|-7-7-7-7-7-------------------------------------| 
D|------------------8---8-8-8-/-10---10-10-10-10-| 
A|-5-5-5-5-5--------8---8-8-8-/-10---10-10-10-10-| 
D|------------------8---8-8-8-/-10---10-10-10-10-| 
 
c) 
 
E|----------------------------------------| 
B|----------------------------------------| 
G|-14-14-14-14-14b15r14-14b15r14-14b15r14-| 
D|----------------------------------------| 
A|-12-12-12-12-12b13r12-12b13r12-12b13r12-| 
D|----------------------------------------| 
 
E|------------------------------| 
B|------------------------------| 
G|------------------------------| 
D|-8---8-8-8-/-10---10-10-10-10-| 
A|-8---8-8-8-/-10---10-10-10-10-| 
D|-8---8-8-8-/-10---10-10-10-10-| 
 
(Repeat Bridge part c again) 
 
Interlude: 
 
E|------------5---------------5-----------| 
B|--------------6-------6-------6-------6-| 
G|----------7-----7---7-----7-----7---7---| 
D|-0------0---------0-----8---------0-----| x2 (besides the D5) 
A|-0--------------------------------------| 
D|-0--------------------------------------| 
 
E|-----0------0-----0-----6-| 
B|-------6------------6-----| 
G|---7-----7------7-----7---| 
D|-0------------8-----------| 
A|--------------------------| 
D|--------------------------| 
 
E|-----0-----5-5-5-5-5---5-5-5-5---5-5-| 
B|-------6-----6-6-6-6---6-6-6-6---6-6-| 
G|---7-----7---7-7-7-7---7-7-7-7---7-7-| 
D|-0-----------8-8-8-8---8-8-8-8---8-8-| 
A|-------------------------------------| 
D|-------------------------------------| 
 
Final movement: 
 
E|--------------------------------------| 
B|--------------------------------------| 
G|--------------------------------------| x3 
D|-0-0-0-0-0-0-0-8-8-8-8-10-10-10-10-10-| 
A|-0-0-0-0-0-0-0-8-8-8-8-10-10-10-10-10-| 
D|-0-0-0-0-0-0-0-8-8-8-8-10-10-10-10-10-| 
 
E|----------------------------------------------| 
B|----------------------------------------------| 
G|----------------------------------------------| 
D|-0-0-0-0-0-0-0--8-8-8-8---10-10-10-10---10-10-| 
A|-0-0-0-0-0-0-0--8-8-8-8---10-10-10-10---10-10-| 
D|-0-0-0-0-0-0-0--8-8-8-8---10-10-10-10---10-10-| 
 
E|-------------------------| 
B|-------------------------| 
G|-------------------------| x4 
D|-0-0-0--0-0-0-0--0-0-0-0-| 
A|-0-0-0--0-0-0-0--0-0-0-0-| 
D|-0-0-0--0-0-0-0--0-0-0-0-| 
Pm   : :  :   : :  : 
 
E|--------------------------------------------| 
B|--------------------------------------------| 
G|--------------------------------------------| 
D|-0-0-0-0---0-0-0-0--------0-0-0-0---0-0-0-0-| 
A|-0-0-0-0---0-0-0-0--------0-0-0-0---0-0-0-0-| 
D|-0-0-0-0---0-0-0-0--------0-0-0-0---0-0-0-0-| 
Am                                          : 
 
Guitar Two: 
 
Intro: 
 
a) 
 
E|------------------------------| 
B|-----------------7-----5h7-5--| 
G|-----7-----6------------------| 
D|---7-----7-----7-----7--------| x2 
A|------------------------------| 
D|-0-----0-----0-----0----------| 
 
b) 
 
E|------------------------------------| 
B|------------------------------------| 
G|------------------------------------| 
D|-----9---12----12-----8---12-----12-| 
A|---9---------9------8----------8----| 
D|-9-----9---9------8-----8----8------| 
 
c) 
 
E|--------------------------------------| 
B|--------------------------------------| 
G|-----7-----6-----9-----9-/-11--6--6h7-| 
D|---7-----7-----7-----7----------------| 
A|--------------------------------------| 
D|-0-----0-----0-----0------------------| 
 
(Repeat Intro part a {once}) 
 
(Repeat Intro part b) 
 
d) 
 
E|---------------------------| 
B|---------------------------| 
G|-----7-----6-----6h7---7-7-| 
D|---7-----7-----7-----------| 
A|---------------------------| 
D|-0-----0-----0-------0-----| 
 
(Repeat intro part b) 
 
e) 
 
E|-----------------------| 
B|-----------------------| 
G|-----7-----6-----9-6-7-| 
D|---7-----7-----7-------| 
A|-----------------------| 
D|-0-----0-----0---------| 
 
f) (distortion) 
 
E|---------------------------------| 
B|---------------------------------| 
G|---------------------------------| 
D|-9-9-9-9-9-9-9-9-8-8-8-8-8-8-8-8-| 
A|-9-9-9-9-9-9-9-9-8-8-8-8-8-8-8-8-| 
D|-9-9-9-9-9-9-9-9-8-8-8-8-8-8-8-8-| 
Pm   : : : : : : :   : : : : : : :  
 
Chorus: 
 
a) 
 
E|-------------------------------| 
B|-------------------------------| 
G|-7-7-7-7-/-9-\-7--7-/-14-14-14-| 
D|-------------------------------| x2 
A|-5-5-5-5-/-7-\-5--5-/-12-12-12-| 
D|-------------------------------| 
 
b) 
 
E|-------------------------| 
B|-------------------------| 
G|-------------------------| 
D|-9---9-9-8-8-8-8-8-8-8-8-| 
A|-9---9-9-8-8-8-8-8-8-8-8-| 
D|-9---9-9-8-8-8-8-8-8-8-8-| 
 
c) 
 
E|-----------------------------------------| 
B|-----------------------------------------| 
G|-7-7-7-7-/-9-9-9-9-/-11-11-11-11-/-12-12-| 
D|-----------------------------------------| 
A|-5-5-5-5-/-7-7-7-7-/-9--9--9--9--/-10-10-| 
D|-----------------------------------------| 
 
(Repeat Chorus part B) 
 
d) 
 
E|-------------------------------------| 
B|-------------------------------------| 
G|-7---7-7-/-12---12-12-12-12-12-12-12-| 
D|-------------------------------------| 
A|-5---5-5-/-10---10-10-10-10-10-10-10-| 
D|-------------------------------------| 
 
e) 
 
E|----------------------------| 
B|----------------------------| 
G|----------------------------| 
D|-9---9-9-7--7-7-7-7-7-7-7-5-| 
A|-9---9-9-7--7-7-7-7-7-7-7-5-| 
D|-9---9-9-7--7-7-7-7-7-7-7-5-| 
 
f) 
 
E|---------------------------------------------------------------------| 
B|---------------------------------------------------------------------| 
G|---------7-7-/-9---------9-9-/-11---------11-11-/-12---------12-\-11-| 
D|-0-0-0-0---------0-0-0-0----------0-0-0-0------------0-0-0-0---------| 
A|-0-0-0-0-5-5-/-7-0-0-0-0-7-7-/-9--0-0-0-0-9--9--/-10-0-0-0-0-10-\-9--| 
D|-0-0-0-0---------0-0-0-0----------0-0-0-0------------0-0-0-0---------| 
Pm : : : :         : : : :          : : : :            : : : :  
 
(Repeat Chorus part e) 
 
(Repeat Intro) 
 
(Repeat Chorus, but replace final part e with this:) 
 
E|---------------5---5---6p5---| 
B|-------------6---6---6-----6-| 
G|-----------------------------| 
D|-9-9-9-9-9-9-----------------| 
A|-9-9-9-9-9-9-----------------| 
D|-9-9-9-9-9-9-----------------| 
 
Bridge: 
 
E|-------------5---5---6p5-------------------------------------| 
B|-----------6---6---6-----6-----------------------------------| 
G|-------------------------------------------------------------| 
D|-0-0-0-0-0------------------8---8-8-8-/-10-10-10-10-10-10-10-| x4 
A|-0-0-0-0-0------------------8---8-8-8-/-10-10-10-10-10-10-10-| 
D|-0-0-0-0-0------------------8---8-8-8-/-10-10-10-10-10-10-10-| 
 
Interlude: 
 
E|-------------------------------------------------------------| 
B|-------------------------------------------------------------| 
G|-------------------------------------------------------------| 
D|-----7-----7-------7-----7-8-----7-----7h8p7-------7-----7---| 
A|---0---8-0---8---8---8---------0---8-0-------8---8---8-0---8-| 
D|-0-------------8-------8-----0-----------------8-------------| 
 
E|-------------------------------------------------------------------| 
B|-------------------------------------------------------------------| 
G|-------------------------------------------------------------------| 
D|-----7-----7-------7-----8p7-9-----7-----7-7-7-7-7---7-7-7-7---7-7-| 
A|---0---8-0---8---8---8-----------0---8-0---8-8-8-8---8-8-8-8---8-8-| 
D|-0-------------8-------8-------0-----------8-8-8-8---8-8-8-8---8-8-| 
 
Final Movement: 
 
(It sounds better if you play this an octave up, but it sounds fine as tabbed) 
 
E|-----5-------5-------5-------5-6-| 
B|---6---6---6---6---6---6---6-----| 
G|-7-------7-------7-------7-------| 
D|---------------------------------| x3 
A|---------------------------------| 
D|---------------------------------| 
 
E|-----5-------5-----------------------------| 
B|---6---6---6---6---------------------------| 
G|-7-------7-------7-7-7-7-7---7-7-7-7---7-7-| 
D|-------------------------------------------| 
A|-------------------5-5-5-5---5-5-5-5---5-5-| 
D|-------------------------------------------| 
 
E|---| 
B|---| 
G|-7-| Repeat this octave in time with Guitar 1's open D5 chords until end. 
D|---| 
A|-5-| 
D|---| 
 
 
End. 
 
 
 

		  

Full key step upFull key step up
Half key step upHalf key step up
Half key step downHalf key step down
Full key step downFull key step down
hide glossary

See also:

tabs Van Halen - Pretty Woman tabs Guns N' Roses - Wild Horses tabs The Doors - People Are Strange tabs Guns N' Roses - Sweet Child o' mine tabs Jack Johnson - Good People tabs Simon & Garfunkel - Sounds of silence
e-chords

Other versions:

tabs Thursday - Dying In New Brunswick
auto scroll beats size up size down change color hide chords drawings
tab show chords e-chords YouTube Clip e-chords hide all tabs e-chords go to top tab

share