Thursday

Cross Out The Eyes

Thursday

tabs

save to print version add songbook text version e-mail correct tuner
chordsukulelecavacokeyboardtabbassdrumsharmonicaflute Guitar Pro
close

there isn't a video lesson for this song

chords

Cross Out The Eyes

	  		 
Thursday 
Cross Out the Eyes 
Drop D Tuning 
 
Drum Intro 
 
Verse 1: 
Guitar 1  
e---------------------------------------- 
B---------------------------------------- 
G-x-x---5-5--x--5-5--x--5-5-5-5---------- 
D-x-x---3-2--x--3-2--x--3-3-2-0---------- 
A-x-x------------------------------------ 
D---------------------------------------- 
 
e---------------------------------------- 
B---------------------------------------- 
G-x-x---5-5--x--5-5--x--5-5-5-5---------- 
D-x-x---3-2--x--3-2--x--3-3-2-0---------- 
A-x-x------------------------------------ 
D---------------------------------------- 
 
e---------------------------------------- 
B---------------------------------------- 
G-x-x---5-5--x--5-5--x--5-5-5-5---------- 
D-x-x---3-2--x--3-2--x--3-3-2-0---------- 
A-x-x------------------------------------ 
D---------------------------------------- 
 
e---------------------------------------- 
B---------------------------------------- 
G--5555555555555555555555555------------- 
D--5555555555555555555555555------------- 
A--3333333333333333333333333------------- 
D---------------------------------------- 
 
Guitar 2: 
Play these lightly over the intro of Guitar 1. 
e---------------------------------------- 
B---------------------------------------- 
G---5------------------------------------ 
D---3---------7----------3-------5------- 
A-------------5----------1-------3------- 
D---------------------------------------- 
 
Pre Chorus: 
e---------------------------------------- 
B---------------------------------------- 
G---------------------33333333333333----- 
D--0---0----0-0-------33333333333333----- 
A--0---0----0-0-------11111111111111----- 
D--0---0----0-0-------------------------- 
 
 
Chorus: 
e--------------------------------------------------------- 
B--------------------------------------------------------- 
G--------3-3-3--------3-3-3-------3-3-3--55555555555555--- 
D--0-----3-3-3----0---3-3-3---0---3-3-3--55555555555555--- 
A--0-----1-1-1----0---1-1-1---0---1-1-1--33333333333333--- 
D--0--------------0-----------0--------------------------- 
 
Verse 2: 
e--------------------------------------------------------- 
B--------------------------------------------------------- 
G---555555555555------------------------------------------ 
D---333333333333-7777777777777-333333333333-555555555555-- 
A----------------5555555555555-111111111111-333333333333-- 
D--------------------------------------------------------- 
 
Post Chorus: 
e--- Part 1 -----------|--- Part 2 ------ 
B----5------5------5---|----6-5---5------ 
G------5------5------5-|--------5---5-4-- 
D----------------------|----------------- 
A--0------0------0-----|--0-------------- 
D----------------------|----------------- 
 
Ending: 
e--------------------------------------- 
B--------------------------------------- 
G--------------------------------------- 
D---7--7--7--7----55555555555555-------- 
A---5--5--5--5----33333333333333-------- 
D---5--5--5--5----33333333333333-------- 
 
Song Structure: 
Drum Intro (8 Beats) 
Verse 1 x2 
Pre-Chorus x4 
Chorus x2 
Verse 2 x4 
Pre-Chorus x4 
Chorus x4 (last x2, just play the Bb and C in same order as chorus) 
Post Chorus Part 1 x1, Part 2 x4 
Chorus x4 
Ending x4 
 

		  

Full key step upFull key step up
Half key step upHalf key step up
Half key step downHalf key step down
Full key step downFull key step down
hide glossary

See also:

tabs Van Halen - Pretty Woman tabs Guns N' Roses - Wild Horses tabs The Doors - People Are Strange tabs Guns N' Roses - Sweet Child o' mine tabs Jack Johnson - Good People tabs Simon & Garfunkel - Sounds of silence
e-chords

Other versions:

tabs Thursday - Cross Out The Eyes tabs Thursday - Cross Out The Eyes (ver. 2) tabs Thursday - Cross Out The Eyes (ver. 3)
auto scroll beats size up size down change color hide chords drawings
tab show chords e-chords YouTube Clip e-chords hide all tabs e-chords go to top tab

share