Thursday

Cross Out The Eyes (ver. 2)

Thursday

tabs

save to print version add songbook text version e-mail correct tuner
chordsukulelecavacokeyboardtabbassdrumsharmonicaflute Guitar Pro
close

there isn't a video lesson for this song

chords

Cross Out The Eyes (ver. 2)

	  		 
Cross Out The Eyes - Thursday 
 
This is my first complete tab.  I'm pretty sure it's accurate.  Please rate it, I'd like to know where i can make some improvements if needed. 
 
Drop D tuning (D A D G B e) 
 
A: Intro 
Gtr. 1 Overdriven 
                                       volume swell 
e|------------------------------------------------------| 
B|------------------------------------------------------| 
G|------------------------------------------------------| 
D|------------------------------------------------------| 
A|-------------------------------------10---------------| 
D|-------------------------------------10---------------| 
 
B: First Verse (play through twice) 
Gtr. 1 
   pm-   pm  pm-   pm  pm-         pm-   pm  pm-   pm  pm- 
e|-----------------------------------------------------------------| 
B|-----------------------------------------------------------------| 
G|-----------------------------------------------------------------| 
D|-----3---3-----3---3-----3-3-3-3-----0---0-----0---0-----0-0-0-0-| 
A|-3-3-3-3-3-3-3-3-3-3-3-3-3-3-3-3-0-0-0-0-0-0-0-0-0-0-0-0-0-0-0-0-| 
D|-3-3-3-3-3-3-3-3-3-3-3-3-3-3-3-3-0-0-0-0-0-0-0-0-0-0-0-0-0-0-0-0-| 
 
Gtr. 2 Overdriven 
       >   >     >   >     > > > >     >   >     >   >     > > > > 
e|-----------------------------------------------------------------| 
B|-----6---5-----6---5-----6-6-5-6-----6---5-----6---5-----6-6-5-6-| 
G|-----5---5-----5---5-----5-5-5-5-----5---5-----5---5-----5-5-5-5-| 
D|-3-3---3---3-3---3---3-3---------0-0---0---0-0---0---0-0---------| 
A|-----------------------------------------------------------------| 
D|-----------------------------------------------------------------| 
 
Gtr. 1 
   pm-   pm  pm-   pm  pm- 
e|---------------------------------| 
B|---------------------------------| 
G|---------------------------------| 
D|-----8---8-----8---8-----8-8-8-8-| 
A|-8-8-8-8-8-8-8-8-8-8-8-8-8-8-8-8-| 
D|-8-8-8-8-8-8-8-8-8-8-8-8-8-8-8-8-| 
 
Gtr. 2 
       >   >     >   >     > > > >  
e|---------------------------------| 
B|-----6---5-----6---5-----6-6-5-6-| 
G|-----5---5-----5---5-----5-5-5-5-| 
D|-8-8---8---8-8---8---8-8---------| 
A|---------------------------------| 
D|---------------------------------| 
 
Gtr. 1 
   sl. 
   > >  >  >  >  >  >  >  >  >  >  >  >  >  >  > 
e|------------------------------------------------| 
B|------------------------------------------------| 
G|------------------------------------------------| 
D|-8/10-10-10-10-10-10-10-10-10-10-10-10-10-10-10-| 
A|-8/10-10-10-10-10-10-10-10-10-10-10-10-10-10-10-| 
D|-8/10-10-10-10-10-10-10-10-10-10-10-10-10-10-10-| 
 
Gtr. 2 
   > >  >  >  >  >  >  >  >  >  >  >  >  >  >  >  
e|------------------------------------------------| 
B|-8-8--8--8--8--8--8--8--8--8--8--8--8--8--8--8--| 
G|-5-5--5--5--5--5--5--5--5--5--5--5--5--5--5--5--| 
D|------------------------------------------------| 
A|------------------------------------------------| 
D|------------------------------------------------| 
 
C: Pre-Chorus 
 
Gtrs. 1 + 2 (play twice) 
                 slide                   slide 
                 > >  >         >  >  >  >  >  > 
e|------------------------------------------------| 
B|------------------------------------------------| 
G|---------9-9-9-9/10\9---------10-10-10-10/12\10-| 
D|-0-0-0-0-x-x-x-x-x--x-0-0-0-0-x--x--x--x--x--x--| 
A|-0-0-0-0-7-7-7-7/8-\7-0-0-0-0-8--8--8--8-/10\8--| 
D|-0-0-0-0--------------0-0-0-0-------------------| 
 
D: Chorus 
 
Gtrs. 1 + 2 (first half) 
       >  >  >      >  >  >      >  >  > 
        __3__        __3__        __3__    sl. 
e|-----|-----|------|-----|------|-----|-------------------------| 
B|---------------------------------------------------------------| 
G|---------------------------------------------------------------| 
D|-0-0-10-10-10-0-0-10-10-10-0-0-10-10-10-8/10-10-10-10-10-10-10-| 
A|-0-0-8--8--8--0-0-8--8--8--0-0-8--8--8--8/10-10-10-10-10-10-10-| 
D|-0-0-8--8--8--0-0-8--8--8--0-0-8--8--8--8/10-10-10-10-10-10-10-| 
 
(second half) Gtr. 1 
 
       >  >  >      >  >  >      >  >  > 
        __3__        __3__        __3__ 
e|-----|-----|------|-----|------|-----|-------------------------| 
B|---------------------------------------------------------------| 
G|-----10-10-10-----7--7--7------5--5--5--5/7--7--7--7--5--5--5--| 
D|-0-0-x--x--x--0-0-x--x--x--0-0-x--x--x--x-x--x--x--x--x--x--x--| 
A|-0-0-8--8--8--0-0-5--5--5--0-0-3--3--3--3/5--5--5--5--3--3--3--| 
D|-0-0----------0-0----------0-0---------------------------------| 
 
Gtr. 2 
       >  >  >      >  >  >      >  >  > 
        __3__        __3__        __3__    sl. 
e|-----|-----|------|-----|------|-----|-------------------------| 
B|---------------------------------------------------------------| 
G|---------------------------------------------------------------| 
D|-0-0-10-10-10-0-0-10-10-10-0-0-10-10-10-8/10-10-10-10-10-10-10-| 
A|-0-0-8--8--8--0-0-8--8--8--0-0-8--8--8--8/10-10-10-10-10-10-10-| 
D|-0-0-8--8--8--0-0-8--8--8--0-0-8--8--8--8/10-10-10-10-10-10-10-| 
 
E: Pre-Verse Fill In 
 
Gtr. 1 (natural harmonics!) 
let ring................................................. 
e|-------------------------------------------------------| 
B|-------------------------------------------------------| 
G|---7---5---7-----7---5---7-----7---5---7-----7---5---7-| 
D|-7---7---7-----7---7---7-----7---7---7-----7---7---7---| 
A|-------------------------------------------------------| 
D|-------------------------------------------------------| 
 
Gtr. 2 
e|------------------------------------------------------| 
B|------------------------------------------------------| 
G|------------------------------------------------------| 
D|-0----------------------------------------------------| 
A|-0----------------------------------------------------| 
D|-0----------------------------------------------------| 
 
F: Second Verse 
 
Gtr. 1 (each chord is held for four beats) 
e|--------------------------------------| 
B|--------------------------------------| 
G|--------------------------------------| 
D|-3----0----10---0----3----0----10---0-| 
A|-3----0----8----0----3----0----8----0-| 
D|-3----0----8----0----3----0----8----0-| 
 
Gtr. 2 
e|--------------------------------------| 
B|-6----6----6----6----6----8----11---6-| 
G|-5----5----5----5----5----7----10---5-| 
D|--------------------------------------| 
A|-3----3----3----3----3----5----8----3-| 
D|--------------------------------------| 
 
Gtr. 1 
e|----------------------------------| 
B|----------------------------------| 
G|----------------------------------| 
D|-3----0----10---0----3----0----10-| 
A|-3----0----8----0----3----0----8--| 
D|-3----0----8----0----3----0----8--| 
 
Gtr. 2 (play seven times for each block chord above) 
(wait for the block chord to be played for 1/2 of a beat 
before beginning this in each measure.  you can figure it 
out by listening to the song.) 
     
    sl. 
e|-------| 
B|-------| 
G|--9/10-| 
D|--x----| 
A|--7/8--| 
D|-------| 
 
Gtrs. 1 + 2 
e|------------------------| 
B|------------------------| 
G|------------------------| 
D|-8/10-10-10-10-10-10-10-| 
A|-8/10-10-10-10-10-10-10-| 
D|-8/10-10-10-10-10-10-10-| 
 
C: Pre-Chorus 
 
Gtrs. 1 + 2 (play twice) 
                 slide                   slide 
                 > >  >         >  >  >  >  >  > 
e|------------------------------------------------| 
B|------------------------------------------------| 
G|---------9-9-9-9/10\9---------10-10-10-10/12\10-| 
D|-0-0-0-0-x-x-x-x-x--x-0-0-0-0-x--x--x--x--x--x--| 
A|-0-0-0-0-7-7-7-7/8-\7-0-0-0-0-8--8--8--8-/10\8--| 
D|-0-0-0-0--------------0-0-0-0-------------------| 
 
D: Chorus 
 
Gtrs. 1 + 2 (first half) 
       >  >  >      >  >  >      >  >  > 
        __3__        __3__        __3__    sl. 
e|-----|-----|------|-----|------|-----|-------------------------| 
B|---------------------------------------------------------------| 
G|---------------------------------------------------------------| 
D|-0-0-10-10-10-0-0-10-10-10-0-0-10-10-10-8/10-10-10-10-10-10-10-| 
A|-0-0-8--8--8--0-0-8--8--8--0-0-8--8--8--8/10-10-10-10-10-10-10-| 
D|-0-0-8--8--8--0-0-8--8--8--0-0-8--8--8--8/10-10-10-10-10-10-10-| 
 
(second half) Gtr. 1 
 
       >  >  >      >  >  >      >  >  > 
        __3__        __3__        __3__ 
e|-----|-----|------|-----|------|-----|-------------------------| 
B|---------------------------------------------------------------| 
G|-----10-10-10-----7--7--7------5--5--5--5/7--7--7--7--5--5--5--| 
D|-0-0-x--x--x--0-0-x--x--x--0-0-x--x--x--x-x--x--x--x--x--x--x--| 
A|-0-0-8--8--8--0-0-5--5--5--0-0-3--3--3--3/5--5--5--5--3--3--3--| 
D|-0-0----------0-0----------0-0---------------------------------| 
 
Gtr. 2 
       >  >  >      >  >  >      >  >  > 
        __3__        __3__        __3__    sl. 
e|-----|-----|------|-----|------|-----|-------------------------| 
B|---------------------------------------------------------------| 
G|---------------------------------------------------------------| 
D|-0-0-10-10-10-0-0-10-10-10-0-0-10-10-10-8/10-10-10-10-10-10-10-| 
A|-0-0-8--8--8--0-0-8--8--8--0-0-8--8--8--8/10-10-10-10-10-10-10-| 
D|-0-0-8--8--8--0-0-8--8--8--0-0-8--8--8--8/10-10-10-10-10-10-10-| 
 
G: Chorus Breakdown 
Gtrs. 1 + 2 (first half) 
       >  >  >      >  >  >      >  >  > 
        __3__        __3__        __3__    sl. 
e|-----|-----|------|-----|------|-----|-------------------------| 
B|---------------------------------------------------------------| 
G|---------------------------------------------------------------| 
D|-0-0-10-10-10-----10-10-10-----10-10-10-8/10-10-10-10-10-10-10-| 
A|-0-0-8--8--8------8--8--8------8--8--8--8/10-10-10-10-10-10-10-| 
D|-0-0-8--8--8------8--8--8------8--8--8--8/10-10-10-10-10-10-10-| 
 
(second half) Gtr. 1 
 
       >  >  >      >  >  >      >  >  > 
        __3__        __3__        __3__ 
e|-----|-----|------|-----|------|-----|-------------------------| 
B|---------------------------------------------------------------| 
G|-----10-10-10-----7--7--7------5--5--5--5/7--7--7--7--5--5--5--| 
D|-----x--x--x------x--x--x------x--x--x--x-x--x--x--x--x--x--x--| 
A|-----8--8--8------5--5--5------3--3--3--3/5--5--5--5--3--3--3--| 
D|---------------------------------------------------------------| 
 
H: Interlude 
Gtr. 2 
e|------------------------------------------------------| 
B|------------------------------------------------------| 
G|------------------------------------------------------| 
D|-0----------------------------------------------------| 
A|-0----------------------------------------------------| 
D|-0----------------------------------------------------| 
 
Gtr. 1 (comes in after about 4 measures) 
(play once alone and four times w/ gtr. 2) 
                                  H 
e|---------------------------------------------| 
B|-----5---------5---------5-----5-8-8-6-5---5-| 
G|-------5---------5---------5-------------5---| 
D|---7-----7---7-----7---7-----7---------------| 
A|-0---------0---------0-----------------------| 
D|---------------------------------------------| 
 
Gtr. 2 (comes back in after the above is played once through) 
(this part is played four times) 
e|---------------------------------------| 
B|-----8-----6---------------------------| 
G|---------------4-----5---7-------5--(4)|(play every 2nd time.) 
D|---------------------------------------| 
A|---------------------------------------| 
D|---------------------------------------| 
 
D: Chorus (play twice) 
 
Gtrs. 1 + 2 (first half) 
       >  >  >      >  >  >      >  >  > 
        __3__        __3__        __3__    sl. 
e|-----|-----|------|-----|------|-----|-------------------------| 
B|---------------------------------------------------------------| 
G|---------------------------------------------------------------| 
D|-0-0-10-10-10-0-0-10-10-10-0-0-10-10-10-8/10-10-10-10-10-10-10-| 
A|-0-0-8--8--8--0-0-8--8--8--0-0-8--8--8--8/10-10-10-10-10-10-10-| 
D|-0-0-8--8--8--0-0-8--8--8--0-0-8--8--8--8/10-10-10-10-10-10-10-| 
 
(second half) Gtr. 1 
 
       >  >  >      >  >  >      >  >  > 
        __3__        __3__        __3__ 
e|-----|-----|------|-----|------|-----|-------------------------| 
B|---------------------------------------------------------------| 
G|-----10-10-10-----7--7--7------5--5--5--5/7--7--7--7--5--5--5--| 
D|-0-0-x--x--x--0-0-x--x--x--0-0-x--x--x--x-x--x--x--x--x--x--x--| 
A|-0-0-8--8--8--0-0-5--5--5--0-0-3--3--3--3/5--5--5--5--3--3--3--| 
D|-0-0----------0-0----------0-0---------------------------------| 
 
Gtr. 2 
       >  >  >      >  >  >      >  >  > 
        __3__        __3__        __3__    sl. 
e|-----|-----|------|-----|------|-----|-------------------------| 
B|---------------------------------------------------------------| 
G|---------------------------------------------------------------| 
D|-0-0-10-10-10-0-0-10-10-10-0-0-10-10-10-8/10-10-10-10-10-10-10-| 
A|-0-0-8--8--8--0-0-8--8--8--0-0-8--8--8--8/10-10-10-10-10-10-10-| 
D|-0-0-8--8--8--0-0-8--8--8--0-0-8--8--8--8/10-10-10-10-10-10-10-| 
 
I: Bridge (play four times) 
Gtr. 1 
e|----------------------------------------------------| 
B|----------------------------------------------------| 
G|-------------------------5--5--5--5-5-5-5-5-5---5-5-| 
D|-5-5-5-7-7-7-7-7-7-7-7-7-0--0--0--0-0-0-0-0-0---0-0-| 
A|-5-5-5-5-5-5-5-5-5-5-5-5-3--3--3--3-3-3-3-3-3---3-3-| 
D|-5-5-5-5-5-5-5-5-5-5-5-5-0--0--0--0-0-0-0-0-0---0-0-| 
 
Gtr. 2 
e|----------------------------------------------------| 
B|----------------------------------------------------| 
G|-------------------------10-10-10-9-9-9-7-7-7-5-5-5-| 
D|-5-5-5-7-7-7-7-7-7-7-7-7-x--x--x--x-x-x-x-x-x-x-x-x-| 
A|-5-5-5-5-5-5-5-5-5-5-5-5-8--8--3--3-3-3-3-3-3-3-3-3-| 
D|-5-5-5-5-5-5-5-5-5-5-5-5----------------------------| 
 
J: Outro 
 
Gtr. 1 
e|------------------------------------------------------| 
B|------------------------------------------------------| 
G|------------------------------------------------------| 
D|-7----------------------------------------------------| 
A|-5----------------------------------------------------| 
D|-5----------------------------------------------------| 
 
Gtr. 2 
e|------------------------------------------------------| 
B|------------------------------------------------------| 
G|-7----------------------------------------------------| 
D|-0----------------------------------------------------| 
A|-5----------------------------------------------------| 
D|-0----------------------------------------------------| 
 
That's about it.  Don't forget to rate it. :o) 
 

		  

Full key step upFull key step up
Half key step upHalf key step up
Half key step downHalf key step down
Full key step downFull key step down
hide glossary

See also:

tabs Chuck Berry - Johnny B. Goode tabs The Offspring - Come Out and Play tabs Creed - With arms wide open tabs Jack Johnson - Do You Remember tabs Guns N' Roses - November Rain tabs Bon Jovi - Always
e-chords

Other versions:

tabs Thursday - Cross Out The Eyes tabs Thursday - Cross Out The Eyes (ver. 2) tabs Thursday - Cross Out The Eyes (ver. 3)
auto scroll beats size up size down change color hide chords drawings
tab show chords e-chords YouTube Clip e-chords hide all tabs e-chords go to top tab

share