Thursday

A0001

Thursday

tabs

save to print version add songbook text version e-mail correct tuner
chordsukulelecavacokeyboardtabbassdrumsharmonicaflute Guitar Pro
close

there isn't a video lesson for this song

chords

A0001

	  		 
Thursday ? A0001 
 
|----------------------15p12-----13p12--------------------------------------|  
|--15p12-----13p12-----------12--------13-15-13-12--------------12-12-12-12-|  
|--------12--------12------------------------------12-12-12--14-------------|  
|---------------------------------------------------------------------------|  
|---------------------------------------------------------------------------|  
|---------------------------------------------------------------------------|  
 
|----------------------15p12-----13p12--------------------------------------|  
|--15p12-----13p12-----------12--------13-15-13-12--------------12-12-12-12-|  
|--------12--------12------------------------------12-12-12--14-------------|  
|---------------------------------------------------------------------------|  
|---------------------------------------------------------------------------|  
|---------------------------------------------------------------------------|  
 
|----------------------15p12~-----------------------------------------------| 
|--15p12-----13p12----------------------------------------------------------|  
|--------12--------12-------------------------------------------------------|  
|---------------------------------------------------------------------------|  
|---------------------------------------------------------------------------|  
|---------------------------------------------------------------------------| 
 
 
this is the way i here and playthe song.  have fun! 
any questions or comments? email me at [email protected]  or AIM: redakk 
 

		  

See also:

tabs Van Halen - Pretty Woman tabs Guns N' Roses - Wild Horses tabs The Doors - People Are Strange tabs Guns N' Roses - Sweet Child o' mine tabs Jack Johnson - Good People tabs Simon & Garfunkel - Sounds of silence
e-chords

Other versions:

tabs Thursday - A0001
auto scroll beats size up size down change color hide chords drawings
tab show chords e-chords YouTube Clip e-chords hide all tabs e-chords go to top tab

share