Thursday

Between Rupture And Rapture

Thursday

tabs Intermediate intermediate

save to print version add songbook text version e-mail correct tuner
chordsukulelecavacokeyboardtabbassdrumsharmonicaflute Guitar Pro
close

there isn't a video lesson for this song

chords

Between Rupture And Rapture

	  		Tabber ? aguywithaguitar 
Email ? [email protected] 
Drop-D 
 
Guitar 1 
Part A (00:01) 
------------------------------------------------------------------ 
------------------------------------------------------------------ 
-4-4-4-4-4-4-4-4-4-4-4-4-4-4-4-4-4-4-4-4-4-4-4-4-4-4-4-4-4-4-4-4-- 
------------------------------------------------------------------ 
------------------------------------------------------------------ 
------------------------------------------------------------------ 
 . . . . . . slowly release palm mute. . . . . . . . . . . . . .               
 
----------------------------------------------------------------- 
----------------------------------------------------------------- 
-4-4-4-4-4-4-4-4-2h4-4-4-4-4-4-4-2h4-4-4-4-4-4-4-4-4-4-4-4-4-4-4- 
----------------------------------------------------------------- 
----------------------------------------------------------------- 
----------------------------------------------------------------- 
 . . . . . . . .     . . . . . .     . . . . . . .                             
 
------------------------------------------------------------------ 
------------------------------------------------------------------ 
-4-4-4-4-4-4-4-4-2h4-4-4-4-4-4-4-2h4-4-4-4-4-4-4-4-4-4-4-4-4-4-4-- 
------------------------------------------------------------------ 
------------------------------------------------------------------ 
------------------------------------------------------------------ 
 . . . . . . . .     . . . . . .     . . . . . . .                             
 
---------------------------------------------------------------------- 
--2-2-2-3-3-3-3-3-3-3-3-3-3-3-3-3-3-5-3-3-3-3-3-3-3-3-7-7-7-7-7-7-7-7- 
--2-2-2-2-2-2-2-2-4-4-4-4-4-4-4-4-4-4-4-4-4-4-4-4-4-4-7-7-7-7-7-7-7-7- 
---------------------------------------------------------------------- 
---------------------------------------------------------------------- 
---------------------------------------------------------------------- 
                                                                               
 
------------------------------------------------------------------------------ 
--2-2-2-3-3-3-3-3-3-3-3-3-3-3-3-3-3-5-3-3-3-3-3-3-3-3-10-10-10-10-10-10-10---- 
--2-2-2-2-2-2-2-2-4-4-4-4-4-4-4-4-4-4-4-4-4-4-4-4-4-4--9--9--9--9--9--9--9---- 
------------------------------------------------------------------------------ 
------------------------------------------------------------------------------ 
------------------------------------------------------------------------------ 
                                                                               
 
 
Part  B  (00:31) 
---------- 
-3-3--3-3- 
-0-0--0-0- 
---------- 
---------- 
---------- 
                                                                               
----------------------------------------------------------------- 
----------------------------------------------------------------- 
-4-4-4-4-4-4-4-4------------------------------------------------- 
-4-4-4-4-4-4-4-4-5-5-5-5-5-5-5-5-2-2-2-2-2-2-2-2-2-2-2-2-2-2-2-2- 
-2-2-2-2-2-2-2-2-5-5-5-5-5-5-5-5-2-2-2-2-2-2-2-2-2-2-2-2-2-2-2-2- 
-----------------5-5-5-5-5-5-5-5-2-2-2-2-2-2-2-2-2-2-2-2-2-2-2-2- 
                                                                               
----------------------------------------------------------------- 
----------------------------------------------------------------- 
-4-4-4-4-4-4-4-4------------------------------------------------- 
-4-4-4-4-4-4-4-4-5-5-5-5-5-5-5-5-2-2-2-2-2-2-2-2-2-2-2-2-2-2-2-2- 
-2-2-2-2-2-2-2-2-5-5-5-5-5-5-5-5-2-2-2-2-2-2-2-2-2-2-2-2-2-2-2-2- 
-----------------5-5-5-5-5-5-5-5-2-2-2-2-2-2-2-2-2-2-2-2-2-2-2-2- 
 
------------------------------------------------------------------------- 
------------------------------------------------------------------------- 
------------------9--9--9--9--9--9--9--9--------------------------------- 
-9-9-9-9-9-9-9-9-10-10-10-10-10-10-10-10-2-2-2-2-2-2-2-2-2-2-2-2-2-2-2-2- 
-9-9-9-9-9-9-9-9--7--7--7--7--7--7--7--7-2-2-2-2-2-2-2-2-2-2-2-2-2-2-2-2- 
-9-9-9-9-9-9-9-9--7--7--7--7--7--7--7--7-2-2-2-2-2-2-2-2-2-2-2-2-2-2-2-2- 
                                                                               
------------------------------------------------------------------------- 
------------------------------------------------------------------------- 
------------------9--9--9--9--9--9--9--9--------------------------------- 
-9-9-9-9-9-9-9-9-10-10-10-10-10-10-10-10-2-2-2-2-2-2-2-2-2-2-2-2-2-2-2-2- 
-9-9-9-9-9-9-9-9--7--7--7--7--7--7--7--7-2-2-2-2-2-2-2-2-2-2-2-2-2-2-2-2- 
-9-9-9-9-9-9-9-9--7--7--7--7--7--7--7--7-2-2-2-2-2-2-2-2-2-2-2-2-2-2-2-2- 
 
 
Part  C  (00:56) 
------------------------------------------------------------------------------ 
---------------------------------3-3-3-3-3-3-3-3------------------------------ 
-------------6-6-6-6-6-6-6-6-6-6-2-2-2-2-2-2-2-2------------------------------ 
-6-6---6-6---6-6-6-6-6-6-6-6-6-6-0-0-0-0-0-0-0-0-2-2-2-2-2-2-2-2-------------- 
-6-6---6-6---4-4-4-4-4-4-4-4-4-4-0-0-0-0-0-0-0-0-2-2-2-2-2-2-2-2-------------- 
-6-6---6-6-----------------------0-0-0-0-0-0-0-0-2-2-2-2-2-2-2-2-------------- 
                                                                               
 
------------------------------------------------------------------------------ 
---------------------------------3-3-3-3-3-3-3-3------------------------------ 
---------------6-6-6-6-6-6-6-6-6-2-2-2-2-2-2-2-2------------------------------ 
-6-6-6-6-6-6-6-6-6-6-6-6-6-6-6-6-0-0-0-0-0-0-0-0-2-2-2-2-2-2-2-2-------------- 
-6-6-6-6-6-6-6-4-4-4-4-4-4-4-4-4-0-0-0-0-0-0-0-0-2-2-2-2-2-2-2-2-------------- 
-6-6-6-6-6-6-6-------------------0-0-0-0-0-0-0-0-2-2-2-2-2-2-2-2-------------- 
                                                                               
------------------------------------------------------------------------------ 
---------------------------------3-3-3-3-3-3-3-3------------------------------ 
-------------6-6-6-6-6-6-6-6-6-6-2-2-2-2-2-2-2-2------------------------------ 
-6-6---6-6---6-6-6-6-6-6-6-6-6-6-0-0-0-0-0-0-0-0-2-2-2-2-2-2-2-2-------------- 
-6-6---6-6---4-4-4-4-4-4-4-4-4-4-0-0-0-0-0-0-0-0-2-2-2-2-2-2-2-2-------------- 
-6-6---6-6-----------------------0-0-0-0-0-0-0-0-2-2-2-2-2-2-2-2-------------- 
 
------------------------------------------------------------------------------ 
---------------------------------3-3-3-3-3-3-3-3-3-3-3-3-3-3-3-3-3-3-3-3------ 
---------------x-6-6-6-6-6-6-6-6-2-2-2-2-2-2-2-2-2-2-2-2-2-2-2-2-2-2-2-2------ 
-6-6-6-6-6-6-6-x-6-6-6-6-6-6-6-6-0-0-0-0-0-0-0-0-0-0-0-0-0-0-0-0-0-0-0-0------ 
-6-6-6-6-6-6-6-x-4-4-4-4-4-4-4-4-0-0-0-0-0-0-0-0-0-0-0-0-0-0-0-0-0-0-0-0------ 
-6-6-6-6-6-6-6-x-----------------0-0-0-0-0-0-0-0-0-0-0-0-0-0-0-0-0-0-0-0------ 
 
 
(Part  B ) (01:22) 
 
 
 
Part  D  (01:46) 
------------------------------------------------------------------------------ 
------------------------7^------------------------5^--7^---------------------- 
----------------5^--7^------------------------5^------------------------------ 
-2-2-2-2-2-2-2--------------9\-2-2-2-2-2-2-2---------------------------------- 
-2-2-2-2-2-2-2--------------9\-2-2-2-2-2-2-2---------------------------------- 
-2-2-2-2-2-2-2--------------9\-2-2-2-2-2-2-2---------------------------------- 
                                                                               
 
------------------------------------------------------------------------------ 
----------------------------7^--------------------5^--7^---------------------- 
--------------------5^--7^--------------------5^------------------------------ 
--9\-2-2-2-2-2-2-2-------------2-2-2-2-2-2-2-------------2-2-2-2-2-2-2-2------ 
--9\-2-2-2-2-2-2-2-------------2-2-2-2-2-2-2-------------2-2-2-2-2-2-2-2------ 
--9\-2-2-2-2-2-2-2-------------2-2-2-2-2-2-2-------------2-2-2-2-2-2-2-2------ 
                                                                               
 
 
                                                                               
Part E (02:11) 
------------------------------------------------------------------------------ 
------------------------------------------------------------------------------ 
-4-4-4-4-4-4-4-4-4-4-4-4-4-4-4-4---------------------------------------------- 
-2-2-2-2-2-2-2-2-2-2-2-2-2-2-2-2---------------------------------------------- 
-2-2-2-2-2-2-2-2-2-2-2-2-2-2-2-2---------------------------------------------- 
-2-2-2-2-2-2-2-2-2-2-2-2-2-2-2-2---------------------------------------------- 
                                                                               
 
------------------------------------------------------------------------------ 
---------5-5-5-5---------5-5-5-5---------5-5-5-5---------5-5-5-5-------------- 
-4-4-4-4-4-4-4-4-4-4-4-4-4-4-4-4-4-4-4-4-4-4-4-4-4-4-4-4-4-4-4-4-------------- 
-2-2-2-2-2-2-2-2-2-2-2-2-2-2-2-2-2-2-2-2-2-2-2-2-2-2-2-2-2-2-2-2-------------- 
-2-2-2-2-2-2-2-2-2-2-2-2-2-2-2-2-2-2-2-2-2-2-2-2-2-2-2-2-2-2-2-2-------------- 
-2-2-2-2-2-2-2-2-2-2-2-2-2-2-2-2-2-2-2-2-2-2-2-2-2-2-2-2-2-2-2-2-------------- 
                                                                               
------------------------------------------------------------------------------ 
---------5-5-5-5---------5-5-5-5---------5-5-5-5---------5-5-5-5-------------- 
-4-4-4-4-4-4-4-4-4-4-4-4-4-4-4-4-4-4-4-4-4-4-4-4-4-4-4-4-4-4-4-4-------------- 
-2-2-2-2-2-2-2-2-2-2-2-2-2-2-2-2-2-2-2-2-2-2-2-2-2-2-2-2-2-2-2-2-------------- 
-2-2-2-2-2-2-2-2-2-2-2-2-2-2-2-2-2-2-2-2-2-2-2-2-2-2-2-2-2-2-2-2-------------- 
-2-2-2-2-2-2-2-2-2-2-2-2-2-2-2-2-2-2-2-2-2-2-2-2-2-2-2-2-2-2-2-2-------------- 
 
---------2-2-2-2---------2-2-2-2---------2-2-2-2---------2-2-2-2-------------- 
-3-3-3-3-3-3-3-3-3-3-3-3-3-3-3-3-3-3-3-3-3-3-3-3-3-3-3-3-3-3-3-3-------------- 
-4-4-4-4-4-4-4-4-4-4-4-4-4-4-4-4-4-4-4-4-4-4-4-4-4-4-4-4-4-4-4-4-------------- 
------------------------------------------------------------------------------ 
------------------------------------------------------------------------------ 
------------------------------------------------------------------------------ 
                                                                               
------------------------------------------------------------------------------ 
------------------------------------------------------------------------------ 
-9-9-9-9-9-9-9-9-9-9-9-9-12-12-12-12-12-12-12-12-12-12-11-11-11-11------------ 
------------------------------------------------------------------------------ 
-7-7-7-7-7-7-7-7-7-7-7-7-10-10-10-10-10-10-10-10-10-10--9--9--9--9------------ 
------------------------------------------------------------------------------ 
                                                                               
 
Part  F  (02:38) 
----------------------------------------------------------------- 
----------------------------------------------------------------- 
-4-4-4-4-4-4-4-4------------------------------------------------- 
-4-4-4-4-4-4-4-4-5-5-5-5-5-5-5-5-2-2-2-2-2-2-2-2-2-2-2-2-2-2-2-2- 
-2-2-2-2-2-2-2-2-5-5-5-5-5-5-5-5-2-2-2-2-2-2-2-2-2-2-2-2-2-2-2-2- 
-----------------5-5-5-5-5-5-5-5-2-2-2-2-2-2-2-2-2-2-2-2-2-2-2-2- 
 
------------------------------------------------------------------------- 
------------------------------------------------------------------------- 
------------------9--9--9--9--9--9--9--9--------------------------------- 
-9-9-9-9-9-9-9-9-10-10-10-10-10-10-10-10-2-2-2-2-2-2-2-2-2-2-2-2-2-2-2-2- 
-9-9-9-9-9-9-9-9--7--7--7--7--7--7--7--7-2-2-2-2-2-2-2-2-2-2-2-2-2-2-2-2- 
-9-9-9-9-9-9-9-9--7--7--7--7--7--7--7--7-2-2-2-2-2-2-2-2-2-2-2-2-2-2-2-2- 
 
----------------------------------------------------0-0-0-0-0-0-0-0-0--------- 
----------5^-----------------------------5^---------0-0-0-0-0-0-0-0-0--------- 
-------------5^----7^---------5^--------------------4-4-4-4-4-4-4-4-4--------- 
-2-2-2-2--------7^----2-2-2-2----2-2-2-2----2-2-2-2-2-2-2-2-2-2-2-2-2-2-2-2--- 
-2-2-2-2--------------2-2-2-2----2-2-2-2----2-2-2-2-2-2-2-2-2-2-2-2-2-2-2-2--- 
-2-2-2-2--------------2-2-2-2----2-2-2-2----2-2-2-2-2-2-2-2-2-2-2-2-2-2-2-2--- 
                                                                               
 
 
 
 
 
Guitar 2 
Part A (00:01) 
------------------------------------------------------------------------------ 
-7-------------------7------------7---------------7--------------------------- 
-4-------------------4------------4---------------4--------------------------- 
-4----5------2-------4---5----2---4---10----2-----4----10------2-------------- 
------5------2-----------5----2--------7----2-----------7------2-------------- 
------5------2-----------5----2--------7----2-----------7------2-------------- 
                                                                               
 
Part  B  (00:31) 
------------------------------------------------------------------------------ 
------------------------------------------------------------------------------ 
-11-11-11-11-11-11-11-11-9/11-11-11-11-11-7\-4-4-4-4-4-4-4-4-4-4-4-4-4-4-4-4-- 
------------------------------------------------------------------------------ 
--9--9--9--9--9--9--9--9-7--9--9--9--9--9-5\-2-2-2-2-2-2-2-2-2-2-2-2-2-2-2-2-- 
------------------------------------------------------------------------------ 
                                                                               
------------------------------------------------------------------------------ 
------------------------------------------------------------------------------ 
-11-11-11-11-11-11-11-11-9/11-11-11-11-11-7\-4-4-4-4-4-4-4-4-4-4-4-4-4-4-4-4-- 
------------------------------------------------------------------------------ 
--9--9--9--9--9--9--9--9-7--9--9--9--9--9-5\-2-2-2-2-2-2-2-2-2-2-2-2-2-2-2-2-- 
------------------------------------------------------------------------------ 
 
------------------------------------------------------------------------------ 
------------------------------------------------------------------------------ 
------------------9--9--9--9--9--9--9--9-------------------------------------- 
-9-9-9-9-9-9-9-9-10-10-10-10-10-10-10-10-2-2-2-2-2-2-2-2-2-2-2-2-2-2-2-------- 
-9-9-9-9-9-9-9-9--7--7--7--7--7--7--7--7-2-2-2-2-2-2-2-2-2-2-2-2-2-2-2-------- 
-9-9-9-9-9-9-9-9--7--7--7--7--7--7--7--7-2-2-2-2-2-2-2-2-2-2-2-2-2-2-2-------- 
                                                                               
 
------------------------------------------------------------------------------ 
------------------------------------------------------------------------------ 
-11-11-11-11-11-11-11-11-5-5-5-9-7-5-7-4-4-4-4-4-4-4-4-4-4-4-4-4-4-4---------- 
------------------------------------------------------------------------------ 
--9--9--9--9--9--9--9--9-3-3-3-7-5-3-5-2-2-2-2-2-2-2-2-2-2-2-2-2-2-2---------- 
------------------------------------------------------------------------------ 
                                                                               
 
 
Part  C  (00:56) 
-------------------------------9---------------------------------------------- 
----------------------------3----7-------------------------------------------- 
------------6-6-6-6-6-6-6-6-2------------------------------------------------- 
--6-6--6-6--6-6-6-6-6-6-6-6-0-------2-2-2-2-2-2-2-2--------------------------- 
--6-6--6-6--4-4-4-4-4-4-4-4-0-------2-2-2-2-2-2-2-2--------------------------- 
--6-6--6-6------------------0-------2-2-2-2-2-2-2-2--------------------------- 
                                                                               
 
------------------------------------------------------------------------------ 
------------------------------------------------------------------------------ 
-----------------6-6-6-6-6-6-6-6-6-6-7-7-9-9-9-9-6-6-11-11-9-9-9-9------------ 
-6-6-6-6-6-6-6-6-6-6-6-6-6-6-6-6---------------------------------------------- 
-6-6-6-6-6-6-6-6-4-4-4-4-4-4-4-4-4-4-5-5-7-7-7-7-4-4--9--9-7-7-7-7------------ 
-6-6-6-6-6-6-6-6-------------------------------------------------------------- 
                                                                               
-------------------------------9---------------------------------------------- 
----------------------------3----7-------------------------------------------- 
------------6-6-6-6-6-6-6-6-2------------------------------------------------- 
--6-6--6-6--6-6-6-6-6-6-6-6-0-------2-2-2-2-2-2-2-2--------------------------- 
--6-6--6-6--4-4-4-4-4-4-4-4-0-------2-2-2-2-2-2-2-2--------------------------- 
--6-6--6-6------------------0-------2-2-2-2-2-2-2-2--------------------------- 
 
------------------------------------------------------------------------------ 
------------------------------------------------------------------------------ 
-----------------6-6-6-6-6-6-6-6-6-6-7-7-9-9-9-9-6-6-11-11-9-9-9-9-6-6-7-7-9-- 
-6-6-6-6-6-6-6-6-6-6-6-6-6-6-6-6---------------------------------------------- 
-6-6-6-6-6-6-6-6-4-4-4-4-4-4-4-4-4-4-5-5-7-7-7-7-4-4--9--9-7-7-7-7-4-4-5-5-7-- 
-6-6-6-6-6-6-6-6-------------------------------------------------------------- 
                                                                               
 
(Part  B ) (01:22) 
 
 
Part  D  (01:46) 
------------------------------------------------------------------------------ 
-----------------------7^-----------------------5^--7^------------------------ 
---------------5^--7^-----------------------5^-------------------------------- 
-2-2-2-2-2-2-2-------------9\-2-2-2-2-2-2-2----------------------------------- 
-2-2-2-2-2-2-2-------------9\-2-2-2-2-2-2-2----------------------------------- 
-2-2-2-2-2-2-2-------------9\-2-2-2-2-2-2-2----------------------------------- 
                                                                               
 
------------------------------------------------------------------------------ 
---------------------------7^-------------------5^--7^------------------------ 
-------------------5^--7^-------------------5^-------------------------------- 
--9\-2-2-2-2-2-2-2------------2-2-2-2-2-2-2------------2-2-2-2-2-2-2---------- 
--9\-2-2-2-2-2-2-2------------2-2-2-2-2-2-2------------2-2-2-2-2-2-2---------- 
--9\-2-2-2-2-2-2-2------------2-2-2-2-2-2-2------------2-2-2-2-2-2-2---------- 
                                                                               
 
 
Part E (02:11) 
------------------------------------------------------------------------------ 
------------------------------------------------------------------------------ 
------------------------------------------------------------------------------ 
------------------------------------------------------------------------------ 
------------------------------------------------------------------------------ 
------------------------------------------------------------------------------ 
                                                                               
 
------------------------------------------------------------------------------ 
------------------------------------------------------------------------------ 
-----9-4-4-4-4-4-4-4-9-9-9-4-4-4-4-4-4-4-9-9-9-4-4-4-4-4-4-4-9-9-9-4-4-4-4-4-- 
------------------------------------------------------------------------------ 
-----7-2-2-2-2-2-2-2-7-7-7-2-2-2-2-2-2-2-7-7-7-2-2-2-2-2-2-2-7-7-7-2-2-2-2-2-- 
------------------------------------------------------------------------------ 
                                                                               
 
------------------------------------------------------------------------------ 
------------------------------------------------------------------------------ 
-4-4-9-9-9-4-4-4-4-4-4-4-9-9-9-4-4-4-4-4-4-4-9-9-9-4-4-4-4-4-4-4-4-12-12-12--- 
------------------------------------------------------------------------------ 
-2-2-7-7-7-2-2-2-2-2-2-2-7-7-7-2-2-2-2-2-2-2-7-7-7-2-2-2-2-2-2-2-2-10-10-10--- 
------------------------------------------------------------------------------ 
                                                                               
 
------------------------------------------------------------------------------ 
------------------------------------------------------------------------------ 
-12-12-12-12-12-11-11-11-11-11-11-11-11-4-4-4-4-4-4-4-4-4-4-4-4-4-4-4-4------- 
------------------------------------------------------------------------------ 
-10-10-10-10-10--9--9--9--9--9--9--9--9-2-2-2-2-2-2-2-2-2-2-2-2-2-2-2-2------- 
------------------------------------------------------------------------------ 
                                                                               
 
------------------------------------------------------------------------------ 
------------------------------------------------------------------------------ 
--9-9-9-9-9-9-9-9-9-9-9-9-12-12-12-12-11-11-11-11-11-------------------------- 
------------------------------------------------------------------------------ 
--7-7-7-7-7-7-7-7-7-7-7-7-10-10-10-10--9--9--9--9--9-------------------------- 
------------------------------------------------------------------------------ 
                                                                               
 
Part  F  (02:38) 
------------------------------------------------------------------------------ 
------------------------------------------------------------------------------ 
-11-11-11-11-11-11-11-11-9/11-11-11-11-11-7\-4-4-4-4-4-4-4-4-4-4-4-4-4-4-4-4-- 
------------------------------------------------------------------------------ 
--9--9--9--9--9--9--9--9-7--9--9--9--9--9-5\-2-2-2-2-2-2-2-2-2-2-2-2-2-2-2-2-- 
------------------------------------------------------------------------------ 
 
------------------------------------------------------------------------------ 
------------------------------------------------------------------------------ 
-11-11-11-11-11-11-11-11-9-9-9-9-9-9-9-9-11-11-11-11-11-11-11-11-9-9-9-9-9-9-- 
------------------------------------------------------------------------------ 
--9--9--9--9--9--9--9--9-7-7-7-7-7-7-7-7--9--9--9--9--9--9--9--9-7-7-7-7-7-7-- 
------------------------------------------------------------------------------ 
                                                                               
 
----- 
----- 
-9-9- 
----- 
-7-7- 
----- 
                                                                               
 
--------------------------------------------------0-0-0-0-0-0-0-0-0----------- 
---------5^-----7^--------------------------------0-0-0-0-0-0-0-0-0----------- 
-------------7^----7^-----------------------------4-4-4-4-4-4-4-4-4----------- 
-2-2-2-2--------------2-2-2-2---2-2-2-2---2-2-2-2-2-2-2-2-2-2-2-2-2-2-2-2----- 
-2-2-2-2--------------2-2-2-2---2-2-2-2---2-2-2-2-2-2-2-2-2-2-2-2-2-2-2-2----- 
-2-2-2-2--------------2-2-2-2---2-2-2-2---2-2-2-2-2-2-2-2-2-2-2-2-2-2-2-2----- 
 

		  

See also:

tabs Simon & Garfunkel - Sounds of silence tabs The Strokes - Juicebox tabs John Mayer - Belief tabs Guns N' Roses - Sweet Child o' mine tabs Guns N' Roses - November Rain tabs Foo Fighters - Everlong (acústico)
e-chords

Other versions:

tabs Thursday - Between Rupture And Rapture
auto scroll beats size up size down change color hide chords drawings
tab show chords e-chords YouTube Clip e-chords hide all tabs e-chords go to top tab

share