Thursday

For The Workforce Drowning (ver.2)

Thursday

tabs

save to print version add songbook text version e-mail correct tuner
chordsukulelecavacokeyboardtabbassdrumsharmonicaflute Guitar Pro
close

there isn't a video lesson for this song

chords

For The Workforce Drowning (ver.2)

	  		Tuning:Drop-D 
Email:[email protected] < any ?s ask me 
 
        X4 
e|--5555-5-5-5--| 
B|--5555-5-5-5--| 
G|--7777-7-7-7--| 
D|--7777-7-7-7--| 
A|--5555-5-5-5--| 
D|--XXXX-0-0-0--| 
 
          X4 
e|-----------------5-5-5--| 
B|-----------------5-5-5--| 
G|-----------------7-7-7--| 
D|--7---7--101010--7-7-7--| 
A|--5---5--8 8 8---5-5-5--| 
D|--0---0--8 8 8---5-5-5--| 
 
  Thats Somewhere In There^  2nd Guitar tho 
e|--------| 
B|--------| 
G|--7-9-10| 
D|--X-X-X-| 
A|--5-7-8-| 
D|--------| 
 
 
e|--555-555-555-| 
B|--777-888-666-| 
G|--555-555-555-| 
D|--555-555-555-| 
A|--------------| 
D|--------------| 
 
e|---------------3-3-3-3---------------------3-3-3-3-| 
B|---------------3-3-3-3---------------------3-3-3-3-| 
G|--3----2-------5-5-5-5-33333--22222--------5-5-5-5-| 
D|--3----2----0--5-5-5-5-33333--22222--0--0--5-5-5-5-| 
A|--1----0----0--3-3-3-3-11111--00000--0--0--3-3-3-3-| 
D|------------0--X-X-X-X---------------0--0--X-X-X-X-| 
 
e|--------| 
B|--------| 
G|--7/9/10| 
D|--X/X/X-| 
A|--5/7/8-| 
D|--------| 
 
       X4 
e|--5555-5-5-5--| 
B|--5555-5-5-5--| 
G|--7777-7-7-7--| 
D|--7777-7-7-7--| 
A|--5555-5-5-5--| 
D|--XXXX-0-0-0--| 
 

		  

See also:

tabs Chuck Berry - Johnny B. Goode tabs The Offspring - Come Out and Play tabs Creed - With arms wide open tabs Jack Johnson - Do You Remember tabs Guns N' Roses - November Rain tabs Bon Jovi - Always
e-chords

Other versions:

tabs Thursday - For The Workforce Drowning tabs Thursday - For The Workforce Drowning (ver.2)
auto scroll beats size up size down change color hide chords drawings
tab show chords e-chords YouTube Clip e-chords hide all tabs e-chords go to top tab

share