Thursday

Paris In Flames

Thursday

tabs

save to print version add songbook text version e-mail correct tuner
chordsukulelecavacokeyboardtabbassdrumsharmonicaflute Guitar Pro
close

there isn't a video lesson for this song

chords

Paris In Flames

	  		 
Well, here it is, as I promised, the whole song for both guitars. 
One thing I have to say though is some parts you might not understand. 
To counter that, just listen to the rhythm and you'll get it just fine. 
 
. = palm mute 
x = mute string 
h = hammer on 
p = pull off 
 
GUITAR 1 
Intro (0:00) 
e|-------------------------------------------------------------| 
B|----------10---------------10------------8----------8h10p8---| 
G|-10-10-10----9---10-10-10-----9--9-9-9-----9--9-9-9--------9-| 
D|--8--8--8---------8--8--8--------7-7-7--------7-7-7----------| x2 
A|--8--8--8---------8--8--8--------7-7-7--------7-7-7----------| 
D|--8--8--8---------8--8--8--------7-7-7--------7-7-7----------| 
 
GUITAR 2 
Intro (0:00) 
e|----------10---------------10--------------------------------| 
B|-------------10---------------10---------8------------8------| 
G|-10-10-10--------10-10-10---------9-9-9----9---9-9-9----9----| 
D|--8--8--8---------8--8--8---------7-7-7--------7-7-7---------| x2 
A|--8--8--8---------8--8--8---------7-7-7--------7-7-7---------| 
D|--8--8--8---------8--8--8---------7-7-7--------7-7-7---------| 
 
GUITAR 1 
Verse (0:22) 
e|--------------------8------------------------------8--------| 
B|---------10--------10------10----------10---------10-----10-| 
G|---------10--------10------10----------10---------10-----10-| 
D|-8-8---8----8-8--8-----8-8-----8-8---8-----8-8--8----8-8----| 
A|-8-8---8----8-8--8-----8-8-----8-8---8-----8-8--8----8-8----| 
D|-8-8---8----8-8--8-----8-8-----8-8---8-----8-8--8----8-8----| 
   . .   .    . .  .     . .     . .   .     . .  .    . . 
 
GUITAR 2 
Verse (0:22) 
e|------------------------------------------------------------| 
B|---------10--------10------10----------10---------10-----10-| 
G|---------10--------10------10----------10---------10-----10-| 
D|-8-8---8----8-8--8-----8-8-----8-8---8-----8-8--8----8-8----| 
A|-8-8---8----8-8--8-----8-8-----8-8---8-----8-8--8----8-8----| 
D|-8-8---8----8-8--8-----8-8-----8-8---8-----8-8--8----8-8----| 
   . .   .    . .  .     . .     . .   .     . .  .    . . 
 
GUITAR 1 
e|---------------------------------------------------------| 
B|--------8----------8-------8----------8---------8------8-| 
G|--------9----------9-------9----------9---------9------9-| 
D|--7-7-7-----7-7--7-----7-7-----7-7--7----7-7--7----7-7---| x2 
A|--7-7-7-----7-7--7-----7-7-----7-7--7----7-7--7----7-7---| 
D|--7-7-7-----7-7--7-----7-7-----7-7--7----7-7--7----7-7---| 
    . . .     . .  .     . .     . .  .    . .  .    . . 
 
GUITAR 2 
e|---------------------------------------------------------| 
B|--------8----------8-------8----------8---------8------8-| 
G|--------9----------9-------9----------9---------9------9-| 
D|--7-7-7-----7-7--7-----7-7-----7-7--7----7-7--7----7-7---| x2 
A|--7-7-7-----7-7--7-----7-7-----7-7--7----7-7--7----7-7---| 
D|--7-7-7-----7-7--7-----7-7-----7-7--7----7-7--7----7-7---| 
    . . .     . .  .     . .     . .  .    . .  .    . . 
 
Interlude (0:44) 
e|-------------------------------------------------------------| 
B|-------------------------------------------------------------| 
G|-10-10-10-10-10-10--9--9--9--9--9----------------------------| 
D|--x--x--x--x--x--x--x--x--x--x--x--------------------------7-| x4 
A|--8--8--8--8--8--8--7--7--7--7--7--0--0------7--------7h8----| 
D|-----------------------------------0--0--7h8-----0-7h8-------| 
 
Interlude (0:44) 
e|------------------------------------------------------------| 
B|------------------------------------------------------------| 
G|------------------------------------------------------------| 
D|-8--8--8--8--8--8--7--7--7--7--7--------------------------7-| x4 
A|-8--8--8--8--8--8--7--7--7--7--7--0--0------7---------7h8---| 
D|-8--8--8--8--8--8--7--7--7--7--7--0--0--7h8-----0-7h8-------| 
 
Chorus (1:06) 
e|--------------------------------------------------| 
B|------10----------------------------------8-------| 
G|-10------------------------------------------9---9-| 
D|-8--8------------7-7---------33333333--7-7-----7---| 
A|-8--8------------7-7---------33333333--7-7---------| 
D|-8--8------------7-7---------33333333--7-7---------| 
 
e|----------------------------------------| 
B|-----10-------------8-------------------| 
G|--------10---10-------9---9-------------| 
D|-8-8-------8-----7-7----7---33333333--0-| 
A|-8-8-------------7-7--------33333333--0-| 
D|-8-8-------------7-7--------33333333--0-| 
 
Chorus (1:27) 
e|--------------------------------| 
B|--------------------------------| 
G|-15---14--17--10-----9---12--11-| 
D|--x----x---x---x-----x----x---x-| x2 
A|-13---12--15---8-----7---10---9-| 
D|--------------------------------| 
 
Talking part (1:47) 
e|----------------------| 
B|----------------------| 
G|-10----9----5----4--7-| 
D|--x----x----x----x--x-| 
A|--8----7----3----2--5-| 
D|----------------------| 
 
Chorus (1:58) 
e|-------------------------------------------------| 
B|-----10-------------8--------------------8-------| 
G|--------10---10-------9---9----------------9---9-| 
D|-8-8-------8----7-7-----7---33333333-7-7-----7---| 
A|-8-8------------7-7---------33333333-7-7---------| 
D|-8-8------------7-7---------33333333-7-7---------| 
 
e|----------------------------------------------------------------| 
B|-----10--------------8------------------------------------------| 
G|--------10---10--------9---9------------------------------------| 
D|-8-8-------8-----7-7-----7----33333333--0-0-------------------7-| 
A|-8-8-------------7-7----------33333333--0-0------7--------7h8---| 
D|-8-8-------------7-7----------33333333--0-0--7h8----0-7h8-------| 
 
Verse (2:19) 
e|------------------------------------------------------------| 
B|---------10--------10------10----------10---------10-----10-| 
G|---------10--------10------10----------10---------10-----10-| 
D|-8-8---8----8-8--8-----8-8-----8-8---8-----8-8--8----8-8----| 
A|-8-8---8----8-8--8-----8-8-----8-8---8-----8-8--8----8-8----| 
D|-8-8---8----8-8--8-----8-8-----8-8---8-----8-8--8----8-8----| 
   . .   .    . .  .     . .     . .   .     . .  .    . . 
 
e|---------------------------------------------------------| 
B|--------8----------8-------8----------8---------8------8-| 
G|--------9----------9-------9----------9---------9------9-| 
D|--7-7-7-----7-7--7-----7-7-----7-7--7----7-7--7----7-7---| 
A|--7-7-7-----7-7--7-----7-7-----7-7--7----7-7--7----7-7---| 
D|--7-7-7-----7-7--7-----7-7-----7-7--7----7-7--7----7-7---| 
    . . .     . .  .     . .     . .  .    . .  .    . . 
 
Guitar Solo Setup (2:30) 
e|-----------------------------------------------------| 
B|-----------------------------------------------------| 
G|-----------------------------------------------------| 
D|--8-8-8---8-8----8-8---8-8----7-7---7-7----7-7---7-7-| 
A|--8-8-8---8-8----8-8---8-8----7-7---7-7----7-7---7-7-| 
D|--8-8-8---8-8----8-8---8-8----7-7---7-7----7-7---7-7-| 
    . . .   . .    . .   . .    . .   . .    . .   . . 
 
Guitar Solo (2:40) 
e|-10-10-------10-10--13--10--------15---15--13--12-----12/13-12-| 
B|-10-10--10---10-10-----------13---13---------------------------| 
G|--------10-------------------12--------------------------------| 
D|---------------------------------------------------------------| 
A|---------------------------------------------------------------| 
D|---------------------------------------------------------------| 
 
Bass plays solo (2:51) and then....... 
 
Other talking part (3:01) 
e|------------------------| 
B|------------------------| 
G|-10---9---7--5---7--5-4-| 
D|--x---x---x--x---x--x-x-| 
A|--8---7---5--3---5--3-2-| 
D|------------------------| 
 
Screaming part (3:22) 
e|---------------------------------------------------------| 
B|---------------------------------------------------------| 
G|10---9---5---7--10---9---5-------------------------------| 
D|-8---7---3---5---8---7---3-----0--0--------------------7-| 
A|-8---7---3---5---8---7---3-----0--0------7---------7h8---| 
D|-8---7---3---5---8---7---3-----0--0--7h8-----0-7h8-------| 
 
End of guitar 1 and song. 
 
 
 
 
 
                          
Chorus (1:06) 
e|--------------------------------| 
B|--------------------------------| 
G|-10---9---5---7--10---9---5-----| 
D|--8---7---3---5---8---7---3---0-| 
A|--8---7---3---5---8---7---3---0-| 
D|--8---7---3---5---8---7---3---0-| 
 
Chorus (1:27) 
e|-----------------| 
B|-----------------| 
G|-10----9---5---4-| 
D|--x----x---x---x-| 
A|--8----7---3---2-| 
D|-----------------| 
 
Talking part (1:47) 
e|------------------| 
B|------------------| 
G|-12h14------------| 
D|-------12h14---12-| x7 
A|-------------12---| 
D|------------------| 
 
Chorus (1:58) 
e|---------------------------------------------------------| 
B|---------------------------------------------------------| 
G|10---9---5---7--10---9---5-------------------------------| 
D|-8---7---3---5---8---7---3-----0--0--------------------7-| 
A|-8---7---3---5---8---7---3-----0--0------7---------7h8---| 
D|-8---7---3---5---8---7---3-----0--0--7h8-----0-7h8-------| 
 
Verse (2:19) 
e|---------10--------10------10----------10---------10-----10-| 
B|---------10--------10------10----------10---------10-----10-| 
G|------------------------------------------------------------| 
D|-8-8---8----8-8--8-----8-8-----8-8---8-----8-8--8----8-8----| 
A|-8-8---8----8-8--8-----8-8-----8-8---8-----8-8--8----8-8----| 
D|-8-8---8----8-8--8-----8-8-----8-8---8-----8-8--8----8-8----| 
   . .   .    . .  .     . .     . .   .     . .  .    . . 
 
e|---------------------------------------------------------| 
B|--------8----------8-------8----------8---------8------8-| 
G|--------9----------9-------9----------9---------9------9-| 
D|--7-7-7-----7-7--7-----7-7-----7-7--7----7-7--7----7-7---| 
A|--7-7-7-----7-7--7-----7-7-----7-7--7----7-7--7----7-7---| 
D|--7-7-7-----7-7--7-----7-7-----7-7--7----7-7--7----7-7---| 
    . . .     . .  .     . .     . .  .    . .  .    . . 
 
Guitar Solo Setup (2:30) 
e|-----------------------------------------------------| 
B|-----------------------------------------------------| 
G|-----------------------------------------------------| 
D|--8-8-8---8-8----8-8---8-8----7-7---7-7----7-7---7-7-| 
A|--8-8-8---8-8----8-8---8-8----7-7---7-7----7-7---7-7-| 
D|--8-8-8---8-8----8-8---8-8----7-7---7-7----7-7---7-7-| 
    . . .   . .    . .   . .    . .   . .    . .   . . 
 
Guitar Solo (2:40) 
e|-10-10-------10-10--13--10--------15---15--13--12-----12/13-12-| 
B|-10-10--10---10-10-----------13---13---------------------------| 
G|--------10-------------------12--------------------------------| 
D|---------------------------------------------------------------| 
A|---------------------------------------------------------------| 
D|---------------------------------------------------------------| 
 
Bass plays solo (2:51) and then..... 
 
Other talking part (3:01) 
e|------------------------| 
B|------------------------| 
G|-10---9---7--5---7--5-4-| 
D|--x---x---x--x---x--x-x-| 
A|--8---7---5--3---5--3-2-| 
D|------------------------| 
 
ANOTHER talking part (3:11) 
e|------------------| 
B|------------------| 
G|-12h14------------| 
D|-------12h14---12-| x37 
A|-------------12---| 
D|------------------| 
 
Screaming part (3:22) 
e|---------------------------------------------------------| 
B|---------------------------------------------------------| 
G|---------------------------------------------------------| 
D|-8---7---3---5---8---7---3-----0--0--------------------7-| 
A|-8---7---3---5---8---7---3-----0--0------7---------7h8---| 
D|-8---7---3---5---8---7---3-----0--0--7h8-----0-7h8-------| 
 
End of Guitar 2 and song. 
 

		  

See also:

tabs Simon & Garfunkel - Sounds of silence tabs The Strokes - Juicebox tabs John Mayer - Belief tabs Guns N' Roses - Sweet Child o' mine tabs Guns N' Roses - November Rain tabs Foo Fighters - Everlong (acústico)
e-chords

Other versions:

tabs Thursday - Paris In Flames tabs Thursday - Paris In Flames (ver. 2)
auto scroll beats size up size down change color hide chords drawings
tab show chords e-chords YouTube Clip e-chords hide all tabs e-chords go to top tab

share