The Icarus Account

home > The Icarus Account

All My Love Tab

The Icarus Account

Difficulty: nolevelnolevel

by terr%5Fschmitz

tuner correct add songbook print version text version save to e-mail
chordsukulelecavacokeyboardtabbassdrumsharmonicsflute Guitar Pro
chords

All My Love

  		Intro 

e|-----3-------3-------3-------3-------3-------3-------3-------3---| 
B|---1---1---1---1---1---1---1---1---1---1---1---1---1---1---1---1-| 
G|-----------------------------------------------------------------| 
D|-3-------3------0h2------2---------------------------------------| 
A|---------------------------------0-------0------0h2------2-------| 
E|-----------------------------------------------------------------| 

e|-----3-------3-------3-------3-------3-------3-------3-------3---| 
B|---1---1---1---1---1---1---1---1-1h3---3---3---3---3---3---3---3-| 
G|---------------------------------0-------0-------0-------0-------| 
D|-3-------3------0h2------2---------------------------------------| 
A|-----------------------------------------------------------------| 
E|-----------------------------------------------------------------| 


verse 1 

e|-----3-------3-------3-------3-------3-------3-------3-------3---| 
B|---1---1---1---1---1---1---1---1---1---1---1---1---1---1---1---1-| 
G|-----------------------------------------------------------------| 
D|-3-------3------0h2------2---------------------------------------| 
A|---------------------------------0-------0------0h2------2-------| 
E|-----------------------------------------------------------------| 

e|-----3-------3-------3-------3-------3-------3-------3-------3---| 
B|---1---1---1---1---1---1---1---1---3---3---3---3---3---3---3---3-| 
G|---------------------------------0-------0-----------------------| 
D|-3-------3------0h2------2---------------------------------------| 
A|------------------------------------------------0h2------2-------| 
E|-----------------------------------------------------------------| 

e|-----3-------3-------3-------3-------3-------3-------3-------3---| 
B|---1---1---1---1---1---1---1---1---1---1---1---1---1---1---1---1-| 
G|-----------------------------------------------------------------| 
D|-3-------3------0h2------2---------------------------------------| 
A|---------------------------------0-------0------0h2------2-------| 
E|-----------------------------------------------------------------| 

e|-----3-------3-------3-------3-------3-------3-------3-------3---| 
B|---1---1---1---1---1---1---1---1---3---3---3---3---3---3---3---3-| 
G|---------------------------------0-------0-----------------------| 
D|-3-------3------0h2------2---------------------------------------| 
A|------------------------------------------------0h2------2-------| 
E|-----------------------------------------------------------------| 


Refrain 

e|-----3-------3-------3-------3-------3-------3-------3-------3---| 
B|---1---1---1---1---1---1---1---1---1---1---1---1---1---1---1---1-| 
G|-----------------------------------------------------------------| 
D|-3-------3------0h2------2---------------------------------------| 
A|---------------------------------0-------0------0h2------2-------| 
E|-----------------------------------------------------------------| 

e|-----3-------3-------3-------3-------3-------3-----| 
B|---1---1---1---1---1---1---1---1---3---3---3---3---| 
G|---------------------------------0-------0-------0-| 
D|-3-------3------0h2------2-------------------------| 
A|---------------------------------------------------| 
E|---------------------------------------------------| 


verse 2 

e|-----3-------3-------3-------3-------3-------3-------3-------3---| 
B|---1---1---1---1---1---1---1---1---1---1---1---1---1---1---1---1-| 
G|-----------------------------------------------------------------| 
D|-3-------3------0h2------2---------------------------------------| 
A|---------------------------------0-------0------0h2------2-------| 
E|-----------------------------------------------------------------| 

e|-----3-------3-------3-------3-------3-------3-------3-------3---| 
B|---1---1---1---1---1---1---1---1---3---3---3---3---3---3---3---3-| 
G|---------------------------------0-------0-----------------------| 
D|-3-------3------0h2------2---------------------------------------| 
A|------------------------------------------------0h2------2-------| 
E|-----------------------------------------------------------------| 

e|-----3-------3-------3-------3-------3-------3-------3-------3---| 
B|---1---1---1---1---1---1---1---1---1---1---1---1---1---1---1---1-| 
G|-----------------------------------------------------------------| 
D|-3-------3------0h2------2---------------------------------------| 
A|---------------------------------0-------0------0h2------2-------| 
E|-----------------------------------------------------------------| 

e|-----3-------3-------3-------3-------3-------3-------3-------3---| 
B|---1---1---1---1---1---1---1---1---3---3---3---3---3---3---3---3-| 
G|---------------------------------0-------0-----------------------| 
D|-3-------3------0h2------2---------------------------------------| 
A|------------------------------------------------0h2------2-------| 
E|-----------------------------------------------------------------| 


Chorus 

e|-----3-------3-------3-------3-------3-------3-------3-------3---| 
B|---1---1---1---1---1---1---1---1---1---1---1---1---1---1---1---1-| 
G|-----------------------------------------------------------------| 
D|-3-------3------0h2------2---------------------------------------| 
A|---------------------------------0-------0------0h2------2-------| 
E|-----------------------------------------------------------------| 

e|-----3-------3-------3-------3-------3-------3-------3-------3---| 
B|---1---1---1---1---1---1---1---1---3---3---3---3---3---3---3---3-| 
G|---------------------------------0-------0-------0---------------| 
D|-3-------3------0h2------2---------------------------------------| 
A|--------------------------------------------------------0h2------| 
E|-----------------------------------------------------------------| 

e|-----3-------3-------3-------3-------3-------3-------3-------3---| 
B|---1---1---1---1---1---1---1---1---1---1---1---1---1---1---1---1-| 
G|-----------------------------------------------------------------| 
D|-3-------3------0h2------2---------------------------------------| 
A|---------------------------------0-------0------0h2------2-------| 
E|-----------------------------------------------------------------| 

e|-----3-------3-------3-------3-------3-------3-------3-------3---| 
B|---1---1---1---1---1---1---1---1---3---3---3---3---3---3---3---3-| 
G|---------------------------------0-------0-------0-------0-------| 
D|-3-------3------0h2------2---------------------------------------| 
A|-----------------------------------------------------------------| 
E|-----------------------------------------------------------------| 


Bridge  
(I think the bass notes are actually played on keyboard but I added some anyways) 

e|---------------------------------| 
B|---------------------------------| 
G|-----0-------0-------0-------0---| 
D|---------------------------------| 
A|---3---3---3---3---3---3---3---3-| 
E|-5-------3-------0-------1-------|x13 

e|---------------------------------| 
B|---------------------------------| 
G|-----0-------0---0-0-0-0---------| 
D|---------------------------------| 
A|---3---3---3---3-3-5-7-8---------| 
E|-5-------3-----------------------| 


Outro 

e|-3-------3-------3-------3-------3-------3-------3---| 
B|-1-------1-------1-------1-------1-------1-------3---| 
G|-------------------------------------------------0---| 
D|-3-------2-----------------------3-------2-----------| 
A|-----------------0-------2---------------------------| 
E|-----------------------------------------------------| 

e|-----3-------3-------3-------3-------3-------3-------3-------3---| 
B|---1---1---1---1---1---1---1---1---1---1---1---1---1---1---1---1-| 
G|-----------------------------------------------------------------| 
D|-3-------3------0h2------2---------------------------------------| 
A|---------------------------------0-------0-------2---------------| 
E|---------------------------------------------------------0-------| 

e|-----3-------3-------3-------3-------3-------3-----| 
B|---1---1---1---1---1---1---1---1---3---3---3---3---| 
G|---------------------------------0-------0-------0-| 
D|-3-------3------0h2------2-------------------------| 
A|---------------------------------------------------| 
E|---------------------------------------------------| 



************************************ 

| h  Hammer-on 

************************************ 
	  

Search Paypal
auto scroll beats size up size down change color hide chords drawings
tab show chords e-chords YouTube Clip e-chords hide all tabs e-chords go to top tab