Dragon Ball GT

home > Dragon Ball GT

Sorriso Resplandecente Tab

Dragon Ball GT

Difficulty: BeginnerBeginner

by victborges

tuner correct add songbook print version text version save to e-mail
chordsukulelecavacokeyboardtabbassdrumsharmonicsflute Guitar Pro
chords

Sorriso Resplandecente

	  
Intro: 
e|-----------------| 
B|-----------------| 
G|-0---0---0---0---| 
D|---3---2---0-----| 
A|-----------------| 
E|-----------------| 

e|-3-3-0-1-3-5-3-1-0----0-0-----0-1-0--------| 
B|-------------------3------1-3-------3-1-0--| 
G|------------------------------------------2| 
D|-------------------------------------------| 
A|-------------------------------------------| 
E|-------------------------------------------| 
Seu sorriso é tão resplandecente, que deixou meu coração alegre. 

e|------5-3----------0-1-0-------------------| 
B|----1------(1)--3--------3-1-3---1-1-0-1---| 
G|--2----------------------------------------| 
D|-------------------------------------------| 
A|-------------------------------------------| 
E|-------------------------------------------| 
Me de a mão pra fugir desta terrível escuridão.   (solo) 

e|-------------------------------------------------------------------------------| 
B|-1-1-1-1-1---------------------------------------------------------------------| 
G|------------3-1-3-5--3---3-3-3-3-3-1-0-1-3-1---1-1-1-1-1-0---------------------| 
D|-----------------------------------------------------------3--3-3-5--3-1-3-5---| 
A|-------------------------------------------------------------------------------| 
E|-------------------------------------------------------------------------------| 
Desde o dia em que eu te reencontrei, me lembrei daquele lindo lugar, que na minha infância era especial para mim. 

e|-------------------------------------------------------------------3-1-1--------------| 
B|-------------------------------------------------------------------------4-4-3-4------| 
G|-----3-5---5-5-5-5-5--3-1-3-5-3--3-3-5-7-8--8-3-1-0-1---1-3-1-0--0--------------------| 
D|-5-5----------------------------------------------------------------------------------| 
A|--------------------------------------------------------------------------------------| 
E|--------------------------------------------------------------------------------------| 
Quero saber, se comigo você quer vir dançar, se me der a mão eu te levarei, por um caminho cheio de sombras e de luz 

e|-----------------------------------------------------------------------------3-1--1-1---1-3| 
B|-1-3-4-4--1-4-4--1-4----4-6-4-3--1-1---------------------1-3-3--4-1--3-3-4-1----------4----| 
G|-------------------------------------3-0-3-3--0-3----3-3-----------------------------------| 
D|-------------------------------------------------------------------------------------------| 
A|-------------------------------------------------------------------------------------------| 
E|-------------------------------------------------------------------------------------------| 
Você pode até não perceber, mas o meu coração se amarrou em você, e precisa de alguém pra te mostrar o amor, que o mundo te dá. 

e|-3-3-0-1-3-5-3-1-0----0-0-----0-1-0--------| 
B|-------------------3------1-3-------3-1-0--| 
G|------------------------------------------2| 
D|-------------------------------------------| 
A|-------------------------------------------| 
E|-------------------------------------------| 
Meu alegre coração palpita por um universo de esperança 

e|------5-3----------0-1-0-----0-------------| 
B|----1------(1)--3--------3-1----3----------| 
G|--2----------------------------------------| 
D|-------------------------------------------| 
A|-------------------------------------------| 
E|-------------------------------------------| 
Me de a mão a magia nos espera 

e|-3-3-0-1-3-5-3-1-0----0-0-----0-1-0--------| 
B|-------------------3------1-3-------3-1-0--| 
G|------------------------------------------2| 
D|-------------------------------------------| 
A|-------------------------------------------| 
E|-------------------------------------------| 
Vou te amar por toda minha vida, vem comigo por este caminho 

e|------5-3-----------0-1-0------------------| 
B|----1------(1)--3---------3-1-3----1-1-0-1-| 
G|--2----------------------------------------| 
D|-------------------------------------------| 
A|-------------------------------------------| 
E|-------------------------------------------| 
Me de a mão pra fugir desta terrível escuridão 

Solo: 
e|-4-3---------3-6--4-3---------------------| 
B|-----6---4-6-----------6-4-6/8~-----------| 
G|------------------------------------------| 
D|------------------------------------------| 
A|------------------------------------------| 
E|------------------------------------------| 
	  

there isn't a video lesson for this song

request
Search
auto scroll beats size up size down change color hide chords drawings
tab show chords e-chords YouTube Clip e-chords hide all tabs e-chords go to top tab