Misc Computer Games

Outer Wilds - Riebecks Banjo Theme

Misc Computer Games

tabs

by  GUSTSILVA

save to print version add songbook text version e-mail correct tuner
chordsukulelecavacokeyboardtabbassdrumsharmonicaflute Guitar Pro
close

there isn't a video lesson for this song

chords

Outer Wilds - Riebecks Banjo Theme

	  		
e|--------------------------------------------------------------------------------------------------| 
B|----------------1-0-------0---------------------1-0-------0-3-0-------------------1-0-------0-----| 
G|-------4------------2-0-2---0----------4------------2-0-2-----------------4-----------2-0-2---0---| 
D|----5-----5-------------------------5-----5-------------------------2--5-----5--------------------| 
A|-3-------------------------------5----------------------------------------------------------------| 
E|--------------------------------------------------------------------------------------------------| 

e|-------------------------------| 
B|---------------1-0-------0-3-0-| 
G|-------4-----------2-0-2-------| 
D|----5-----5--------------------| 
A|-5-----------------------------| 
E|-------------------------------| 
		  

auto scroll beats size up size down change color hide chords drawings
tab show chords e-chords YouTube Clip e-chords hide all tabs e-chords go to top tab

share