Misc Computer Games

Fallen Down - Undertale (acoustic)

Misc Computer Games

tabs

by  EDSOOLIVEIRA

save to print version add songbook text version e-mail correct tuner
chordsukulelecavacokeyboardtabbassdrumsharmonicaflute Guitar Pro
close

there isn't a video lesson for this song

chords

Fallen Down - Undertale (acoustic)

	  		
L - tied note 

E |--0-----0-----0-------|--0-----0-----0-------|----------------------| 
B |-----0-----0-----0----|-----0-----0-----0----|--------0L-0----------| 
G |--------0-----0-------|--------0-----0-------|--2--0--------0--2----| 
D |-----2-----2-----2----|-----2-----2-----2----|--------2-----2-------| 
A |--3-------------------|--3-------------------|--0--4-----4-----4----| 
E |----------------------|----------------------|----------------------| 


-----------0----------|--0-----0-----0-------| 
--3--2--3-----2-------|----------------------| 
-----------------2----|-----2-----2-----2----| 
--------2-----2-------|----------------------| 
--0--4-----4-----4----|-----0--3--0--3--0----| 
----------------------|--1-------------------| 


--0-----------0-----------1L----1-------| 
----------------------------------------| 
--------1-----------1-------------------| 
----------------------------------------| 
--------------3-----------3-------------| 
--1-----4-----------4-----------4L-4----| 


--0-----------0-----------------0-------| 
--------1-----------1-----3-------------| 
--------------0-----------0L-0----------| 
--------2-----------2-----------2L-2----| 
--3-------------------------------------| 
----------------------------------------| 


----------------------------------------|| 
--3L----3-----1L----1-----0L----0-------|| 
--------------0-----------0-------------|| 
--------0-----------0-----------0L-0----|| 
--2-------------------------------------|| 
----------------------------------------|| 
		  

auto scroll beats size up size down change color hide chords drawings
tab show chords e-chords YouTube Clip e-chords hide all tabs e-chords go to top tab

share