Led Zeppelin

home > Led Zeppelin

All my Love Tab

Led Zeppelin

Difficulty: ExpertExpert

tuner correct add songbook print version text version save to e-mail
chordsukulelecavacokeyboardtabbassdrumsharmonicsflute Guitar Pro
chords

All my Love

Year: 1979 - Album: Mothership

	  1- ^ ligado
2- / slide              
3- b bend
4- ~ vibrato
5- x nota falsa 
6- * harmônico   
                                          
Intro.    
E|-----------------8------------7-------------5-------------||
B|----------------------------------------------------------||
G|----------7/-9---------5/-7----------4/-5-----------------||
D|----------------------------------------------------------||
A|----------------------------------------------------------||
E|----------------------------------------------------------||         
             
Frase 1
E|------5---3-------------------8---7-------5-----------7^-5-|
B|------5---3---6b---b6---------5---8-----------5------------|
G|--------------------------------------7-----------7--------|
D|-----------------------------------------------------------|
A|-----------------------------------------------------------|
E|-----------------------------------------------------------|


E|----------------------------------------------------------||
B|----10----10----------------------------------------------||
G|----9b----b9^--7------------------------------------------||
D|----------------------------------------------------------||
A|----------------------------------------------------------||
E|----------------------------------------------------------||

Ref.                         2x
E|----------13---12---10---12-------10---8---10-------------||
B|----------------------------------------------------------||
G|----------14---12---10---12-------10---9---10-------------||
D|----------------------------------------------------------||
A|----------------------------------------------------------||
E|----------------------------------------------------------||

Arranjo Ref.
E|----10---8---7---8--------1---3---5---5-------3---1---3----|
B|-----------------------------------------------------------|
G|----10---9---7---9--------2---4---5---5-------4---2---4----|
D|-----------------------------------------------------------|
A|-----------------------------------------------------------|
E|-----------------------------------------------------------|

C.C1
E|----------------------------------------------------------||
B|----------------------------------------------------------||
G|----------------------------------------------------------||
D|-3---------------3---3---3---------------3---3---3-------5||
A|-1---3---3---3---1---1---1---3---3---3---1---1---1---3---3||
E|-----1---1---1---------------1---1---1---------------1----||

solo 1
E|-----------------------------------------------------------|
B|-----------------------------------------------------------|
G|-----------------5-------5---7b---b7---5-------C.C1--------|
D|---------5---7-------7-------------------------------------|
A|-5^--7-----------------------------------------------------|
E|-----------------------------------------------------------|

solo 2
E|-----------------------------------------------------------|
B|---------8b----b8------------------------------------------|
G|-----------------------7^---5-------7^---5-----------------|
D|--------------------------------7------------7-----C.C1----|
A|-----------------------------------------------------------|
E|-----------------------------------------------------------|

C.C2
E|-----------------------------------------------------------|
B|-----------------------------------------------------------|
G|-----------------------------------------------------------|
D|-3---------------3---3---3---------------3---3---3-------7-|
A|-1---3---3---3---1---1---1---3---3---3---1---1---1---3---5-|
E|-----1---1---1---------------1---1---1---------------1-----|


E|-----------------------------5b-b5-------------------------|
B|-----8b-b8-------6b-b6-------------------8b-b8-------6b-b6-|
G|-0-----------0-----------0-----------0-----------0---------|
D|-0-----------0-----------0-----------0-----------0---------|
A|-----------------------------------------------------------|
E|-----------------------------------------------------------|


E|----------------------------------------------------------||
B|------3b----b3----3b----b3----3b--------------------------||
G|----------------------------------------------------------||
D|----------------------------------------------------------||
A|----------------------------------------------------------||
E|----------------------------------------------------------||

Solo Principal
E|----------------------------------------------5---4---5----|
B|-------------------------------5---4---5-------------------|
G|-2---1---2------5---4---5----------------------------------|
D|-----------------------------------------------------------|
A|-----------------------------------------------------------|
E|-----------------------------------------------------------|


E|-7---5---4---5---8------7---5-----------------------------||
B|--------------------------------8---6---5~----------------||
G|----------------------------------------------------------||
D|----------------------------------------------------------||
A|----------------------------------------------------------||
E|----------------------------------------------------------||


E|-5--------------------------------------------|------------|
B|-----5-------3---5-------3--------------------|------------|
G|---------5-----------5-------5---4---2--------|---2---4----|
D|-----------------------------------------5----|------------|
A|----------------------------------------------|------------|
E|----------------------------------------------|------------|


E|----------------------------------|------------------------|
B|----------------------------------|------------------------|
G|-0---5---4---2--------------------|------2---2---1---2---4-|
D|-----------------5---4---2---0----|--2---------------------|
A|----------------------------------|------------------------|
E|----------------------------------|------------------------|


E|---------------------------------5-----4---5---7---5---4---|
B|---------------------5---4---5-----------------------------|
G|-2---4---5---4---5-----------------------------------------|
D|-----------------------------------------------------------|
A|-----------------------------------------------------------|
E|-----------------------------------------------------------|

                   3x
E|-5---8---|---7---8---10---|------8---7--------------------||
B|---------|----------------|--------------10---8---10------||
G|---------|----------------|-------------------------------||
D|---------|----------------|-------------------------------||
A|---------|----------------|-------------------------------||
E|---------|----------------|-------------------------------||


E|----------7---8-----------7-------------------------------||
B|------------------10----------10---10---8---10------------||
G|----------------------------------------------------------||
D|----------------------------------------------------------||
A|----------------------------------------------------------||
E|----------------------------------------------------------||


E|---------------------------0------------------------------||
B|---------------0---1---5-------5---3---1---0--------------||
G|-----------2-----------------------------------2----------||
D|----------------------------------------------------------||
A|----------------------------------------------------------||
E|----------------------------------------------------------||
	  

there isn't a video lesson for this song

request
Search
auto scroll beats size up size down change color hide chords drawings
tab show chords e-chords YouTube Clip e-chords hide all tabs e-chords go to top tab