Led Zeppelin

home > Led Zeppelin

All my Love Bass Tab

Led Zeppelin

Difficulty: AdvancedAdvanced

tuner correct add songbook print version text version save to e-mail
chordsukulelecavacokeyboardtabbassdrumsharmonicsflute Guitar Pro
chords

All my Love

Year: 1979 - Album: Mothership

  		      Afinação
      4321
      EADG

G|----------------|----------------|----------------|----------------|
D|----------------|---------------5|7-----7-5-----5-|5--------------5|
A|----------------|--------------7-|----------------|--5---5-5-----7-|
E|----------------|----------------|----------------|----------------|

G|----------------|----------------|----------------|----------------|
D|7-------5-----7-|---------------5|7-------5-------|---------------5|
A|---------------5|5-5---5---5---7-|----------------|5-5-5-5---5-5-7-|
E|----------------|----5-----------|----------------|----------------|

G|------5---------|----------------|----------------|----------------|
D|7------75-5-----|---------------5|7-------5-------|---------------5|
A|----------------|5-----5---7-8-7-|----------------|55--5-5---5-8-7-|
E|----------------|----------------|----------------|--5-------------|

G|----------------|----------------|----------------|----------------|
D|7-------5-------|---------------5|7-------5-------|---------------5|
A|----------------|5-5-----5-5-5-7-|----------------|5-5-5-5---5-5-7-|
E|----------------|----------------|----------------|-----------5----|

G|----------------|----------------|------5---------|--7-7-----------|
D|7-------5-------|---------------5|7------75-----7-|---------------5|
A|----------------|5-------5-5-577-|---------------5|5-----5---5-5-7-|
E|----------------|----------------|----------------|-------------5--|

G|----------------|----------------|------5---------|----------------|
D|7-------5-------|5--------------5|7------75-----7-|----------------|
A|----------------|--5-5-5-5-5-5-7-|---------------5|55--5-5-5-5---5-|
E|----------------|----------------|----------------|--5---------5---|

G|---------------5|4---------------|------5---------|--------------4-|
D|-------------25-|--------5-3-----|7------75-----5-|3-3-3-3---5-7---|
A|3-------3---3---|------------5-3-|----------------|----------------|
E|----------3-----|----------------|----------------|----------------|
  All my love.....

G|-------------5--|4---------2-----|----------------|----------------|
D|-----------5----|-------------5-5|7-----7-5-5---55|3-3-------------|
A|3-----3-7-7-----|--------------7-|-------5--------|----3-----------|
E|----------------|----------------|----------------|------1---------|

G|----------------|----------------|------5---------|--7-7-----------|
D|7-------5-------|---------------5|7------75-----7-|---------------5|
A|----------------|5-------5-5-577-|---------------5|5-----5---5-5-7-|
E|----------------|----------------|----------------|-------------5--|

G|----------------|----------------|------5---------|----------------|
D|7-------5-------|5--------------5|7------75-----7-|----------------|
A|----------------|--5-5-5-5-5-5-7-|---------------5|55--5-5-5-5---5-|
E|----------------|----------------|----------------|--5---------5---|

G|---------------5|4---------------|------5---------|--------------4-|
D|-------------25-|--------5-------|7------75-----5-|----------5-7---|
A|3-------3---3---|----------7-5---|----------------|8-8-8-8---------|
E|----------3-----|--------------8-|----------------|----------------|

G|----------------|----------------|----------------|----------------|
D|--------------10|9---------7--5-5|7-----7-5-5---55|3-3-------------|
A|--------7-78-8--|--------------7-|-------5--------|----3---------11|
E|8-----8---------|----------------|----------------|------1---------|

G|----------------|----------------|----------------|----------------|
D|----------------|----------------|----------------|----------------|
A|1-----111-----11|1---3-3---333-11|1-----111-----11|1---1-1------1--|
E|--111-----111---|--1-------------|--111-----111---|--1-------1-3-3-|

G|----------------|----------------|----------------|------------1412|
D|----------------|------------2-34|5---------------|----------------|
A|1-----111-----11|1---5-5---5--3--|----------------|----------------|
E|--111-----111---|--1-------------|----------------|----------------|

G|----------------|----------------|------97--------|----------------|
D|----------------|----------------|7-------5-----7-|---------------5|
A|----------------|----------------|----------------|5-5---5---578-7-|
E|----------------|----------------|---------------3|----5-----------|

G|----------------|----------------|------4---------|------------7---|
D|7---7--7555---5-|420-0------0-0--|7------75-5---7-|-------------7-7|
A|------7--------5|------2-0-2---20|---------------5|5-5---5---5---7-|
E|-----5----------|----------------|----------------|----------------|

G|------4---------|----------------|----------------|----------------|
D|7------75-----7-|----------------|----------------|---------------5|
A|---------------5|55--5-5-5-5-5-5-|--------------34|5-----578-----7-|
E|----------------|--5-------------|5-----5-3-3-----|----------------|

G|------5---------|----------------|------5------4--|----------------|
D|7------75-----5-|--------------57|7------75-----75|---------------5|
A|---------------5|5-5--5--5-5-7---|----------------|5-5-5-5-578-577-|
E|----------------|------5---------|----------------|----------------|

G|----------------|----------------|----------------|----------------|
D|7---------------|----------------|----------------|----------------|
A|--------------34|5-5-5-5-5-5-5-11|1-----111-----11|1---3-3---333-11|
E|--------3-3-----|----------------|--111-----111---|--1-------------|

G|----------------|----------------|----------------|----------------|
D|----------------|----------------|----------------|--------------34|
A|1-----111-----11|1---3-3---1--1--|1-----111-----11|1---5-5---5-7---|
E|--111-----111---|--1---------3-3-|--111-----111---|--1----------8--|

G|----------------|----------------|----------------|----------------|
D|5---------------|------------1412|----------------|----------------|
A|----------------|----------------|----------------|----------------|
E|----------------|----------------|----------------|----------------|

G|----------------|----------------|------5---------|--7-7-----------|
D|7-------5-------|---------------5|7------75-----7-|---------------5|
A|----------------|5-------5-5-577-|---------------5|5-----5---5-5-5-|
E|----------------|----------------|----------------|-------------5--|

G|----------------|----------------|------5---------|----------------|
D|7-------5-------|5--------------5|7------75-----7-|----------------|
A|----------------|--5-5-5-5-5-5-7-|---------------5|55--5-5-5-5---5-|
E|----------------|----------------|----------------|--5---------5---|

G|---------------5|4---------------|------5---------|--------------4-|
D|-------------25-|--------5-------|7------75-----5-|----------5-7---|
A|3-------3---3---|----------7-5---|----------------|8-8-8-8---------|
E|----------3-----|--------------8-|----------------|----------------|
  All my love.....

G|----------------|----------------|----------------|----------------|
D|--------------10|9---------7--5-5|7-----7-5-5---55|3-3-------------|
A|--------7-78-8--|--------------7-|-------5--------|----3-----------|
E|8-----8---------|----------------|----------------|------1---------|

  (Tom acima)
G|---------------7|6---------------|------7---------|------------4-6-|
D|-------------47-|--------7-4-----|9------97-----7-|5-5-5-5---7-----|
A|5-------5---5---|------------7-5-|----------------|----------------|
E|----------5-----|----------------|----------------|----------------| 6X
  All my love.....
	  

Search Paypal
auto scroll beats size up size down change color hide chords drawings
tab show chords e-chords YouTube Clip e-chords hide all tabs e-chords go to top tab