Misc Computer Games

Chrono Trigger - Corridors Of Time

Misc Computer Games

tabs Beginner beginner

by  FERNSANTANA

save to print version add songbook text version e-mail correct tuner
chordsukulelecavacokeyboardtabbassdrumsharmonicaflute Guitar Pro
close

there isn't a video lesson for this song

chords

Chrono Trigger - Corridors Of Time

	  		Guitar I: 
Intro 

e|---------------14-----------12----------14---------------------------------| 
B|---------12-14--------12-14-------12-14-------12-14------------------------| 
G|------11----------11-----------11----------11------------------------------| 
D|---12----------------------------------------------------------------------| 
A|---------------------------------------------------------------------------| 
E|---------------------------------------------------------------------------| 

Guitar II: 
2nd Part 

e|---16-16-14-14--14h16-17-19-17p16-14-14-12-12------------------------------| 
B|------------------------------------------------------------------------14-| 
G|---------------------------------------------------------------------------| 
D|---------------------------------------------------------------------------| 
A|---------------------------------------------------------------------------| 
E|---------------------------------------------------------------------------| 

e|---16-16-14-14--14h16-17-19-19-19-21-21---21-12+-21-17-17------------------| 
B|---------------------------------------------------------------------------| 
G|---------------------------------------------------------------------------| 
D|---------------------------------------------------------------------------| 
A|---------------------------------------------------------------------------| 
E|---------------------------------------------------------------------------| 

e|---17-14-21-19-21-16-16-14-12-12---12-14-------12-14-16-17-16----12-14-16--| 
B|--------------------------------------------15----------------12-----------| 
G|-----------------------------------------14--------------------------------| 
D|---------------------------------------------------------------------------| 
A|---------------------------------------------------------------------------| 
E|---------------------------------------------------------------------------| 

e|-17-16-16---14-14----------------------------------------------------------| 
B|---------------------------------------------------------------------------| 
G|---------------------------------------------------------------------------| 
D|---------------------------------------------------------------------------| 
A|---------------------------------------------------------------------------| 
E|---------------------------------------------------------------------------|  
		  

See also:

tabs Megaman - Shade Man tabs Oceans Ate Alaska - Clocks tabs Dragon Ball GT - Sorriso Resplandecente tabs Misc Computer Games - Resident Evil 4 - Save Theme tabs Misc Computer Games - Skyrim - Song Of The Dragonborn tabs Misc Computer Games - The Witcher 3 Ost - Lullaby Of Woe A Night To Remember Song (acoustic)
e-chords

Other versions:

tabs Misc Computer Games - Chrono Trigger - Corridors Of Time
auto scroll beats size up size down change color hide chords drawings
tab show chords e-chords YouTube Clip e-chords hide all tabs e-chords go to top tab

share