Misc Television

home > Misc Television

Marvels The Punisher - Main Theme Tab

Misc Television

Difficulty: nolevelnolevel

by hugo%5Frodrigues

tuner correct add songbook print version text version save to e-mail
chordsukulelecavacokeyboardtabbassdrumsharmonicsflute Guitar Pro
chords

Marvels The Punisher - Main Theme

	  
                Repeat 2x 
e|--------------------------------------------| 
B|--------------------------------------------| 
G|-------------------3------------------------| 
D|---3--5---------5-----5--3--5--3--1--5------| 
A|-------------3------------------------------| 
E|--------------------------------------------| 
   

                Repeat 2x 
e|-----------------------------------------------------------------------------| 
B|------1--------1-----4--------------1---------1----4h5--5--5--3--------------| 
G|---------2--------------5-----5--------2-------------------------5--2--5-----| 
D|-----------------------------------------------------------------------------| 
A|---0--------s-----0--------s-----0--------s--------0----------s--------------| 
E|---x--------s-----x--------s-----x--------s--------x----------s--------------| 


                Repeat 2x 
e|-----------------------------------------------------------------------------------| 
B|---1---------1---------3b4-----------------1-------------2----2--------------------| 
G|--------2---------2------------embellish-------2---------2----2----embellish-------| 
D|----------------------------------------------------1------------------------------| 
A|---0----s----0----s----0----s----0----s----0---s----0----s----0----s----0----s-----| 
E|---x----s----x----s----x----s----x----s----x---s----x----s----x----s----x----s-----|  
	  

there isn't a video lesson for this song

request
Search
auto scroll beats size up size down change color hide chords drawings
tab show chords e-chords YouTube Clip e-chords hide all tabs e-chords go to top tab