Tété

Le Meilleur Des Mondes

Tété

tabs Advanced advanced

by  BRUNBLAZKOWSKI

save to print version add songbook text version e-mail correct tuner
chordsukulelecavacokeyboardtabbassdrumsharmonicaflute Guitar Pro
close

there isn't a video lesson for this song

chords

Le Meilleur Des Mondes

	  		Le meilleur des mondes, Tété 
intro 

:-----------------------------------------------------------------------------------------------: 
:----x1-----------1-1-1--------0---0-0-0----0-0-0---1--1-1-1----1-1-1----------0----------------: 
:----x0-----------0-0-0--0-----0h2-0-0-2/4--2-0-0---0--0-0-0----0-0-0---0--------0--------------: 
:----x3-----------3-2-0-----------------------------3-----------3-2-0--0-----0---------2-2------: 
:----x3----------------1~-2-------------------------3-------------------------------------------: 
:-------------------------3----------------------------------------------3-3--------------------: 


:------0----------------------------------------------------------------------------------------: 
:---0--1-0-------1-1-1----1-1-1-----0---0-0-0--0---0-0-0---1--1-1-1----1-1-1------------0-------: 
:---0--0-0-------0-0-0----0-0-0-----2/4-2-0-0--2/4-2-0-0---0--0-0-0----0-0-0--0-----------0-----: 
:----------------3--------3-2-0-0--------------------------3-----------3-2-0-0--------0---------: 
:----------------------------------------------------------3------------------------------------: 
:----------1-1--------------------------------------------------------------------3-3-----------: 

  
parole:                          avant,      avec la   misère du mon____de    seulement, on 
		  

See also:

tabs Tété - Le Meilleur Des Mondes tabs Tété - La Relance tabs Tété - Le Sacre Des Lemmings (interlude) tabs Soko - Sweet Sound Of Ignorance tabs Lara Fabian - Love By Grace tabs Tété - Le Magicien
e-chords

Other versions:

tabs Tété - Le Meilleur Des Mondes
auto scroll beats size up size down change color hide chords drawings
tab show chords e-chords YouTube Clip e-chords hide all tabs e-chords go to top tab

share with facebook