Tété

Flou

Tété

tabs nolevel nolevel

by  BRUNBLAZKOWSKI

save to print version add songbook text version e-mail correct tuner
chordsukulelecavacokeyboardtabbassdrumsharmonicaflute Guitar Pro
close

there isn't a video lesson for this song

chords

Flou

Key:  A More
Flou Key EE
Flou Key FF
Flou Key F#F#
Flou Key GG(one step down)
Flou Key G#G#(half step down)
Flou Key AA(original key)
Flou Key A#A#(half step up)
Flou Key BB(one step up)
Flou Key CC
Flou Key C#C#
Flou Key DD
Flou Key D#D#
	  		Accords 
   A        F#m         D        E           A        F#m       
|--0--------2--------|--2--------0--------|--0--------2--------| 
|--2--------2--------|--3--------0--------|--2--------2--------| 
|--2--------2--------|--2--------1--------|--2--------2--------| 
|--2--------4--------|--0--------2--------|--2--------4--------| 
|--0--------4--------|-----------2--------|--0--------4--------| 
|-----------2--------|-----------0--------|-----------2--------| 

   F#m      D        A7sus4   Dadd9    Dmadd9  Asus4    
|--2--------2--------|--0------0----|----0-------0---|----------|| 
|--2--------3--------|--3------3----|----3-------3---|----------|| 
|--2--------2--------|--2------2----|----2-------2---|----------|| 
|--4--------0--------|--5------4----|----3-------2---|----------|| 
|--4-----------------|--0------0----|----0-------0---|----------|| 
|--2-----------------|--------------|------------0---|----------|| 

Intro 
     A7sus4                    Dadd9                    
E||---------------0---------|---------------0---------| 
B||----------3--------3-----|----------3--------3-----| 
G||-------------2--------2--|-------------2--------2--| 
D||-------5-----------------|-------4-----------------| 
A||--0----------------------|--0----------------------| 
E||-------------------------|-------------------------| 

  Dmadd9                    A                   Asus4 
		  

Full key step upFull key step up
Half key step upHalf key step up
Half key step downHalf key step down
Full key step downFull key step down
hide glossary

See also:

tabs Tété - Le Meilleur Des Mondes tabs Tété - La Relance tabs Tété - Le Sacre Des Lemmings (interlude) tabs Soko - Sweet Sound Of Ignorance tabs Lara Fabian - Love By Grace tabs Tété - Le Magicien
e-chords

Other versions:

tabs Tété - Flou tabs Arctic Monkeys - Flourescent Adolescent
auto scroll beats size up size down change color hide chords drawings
tab show chords e-chords YouTube Clip e-chords hide all tabs e-chords go to top tab

share with facebook