Melody's Echo Chamber

Quand Vas Tu Rentrer

Melody's Echo Chamber

tabs

by  LUCICAMARGO

save to print version add songbook text version e-mail correct tuner
chordsukulelecavacokeyboardtabbassdrumsharmonicaflute Guitar Pro
close

there isn't a video lesson for this song

chords

Quand Vas Tu Rentrer

	  		

Intro: 
Keyboard: 
e|------| 
B|-11---| 
G|------| x3 
D|------| 
A|------| 
E|------| 


And then this: 
Keyboard: 
e|----10------| 
B|-11---------| 
G|-------12---| x4 
D|------------| 
A|------------| 
E|------------| 


Pre-Verse: 
Keyboard: 
e|----10.-----10-----10-| 
B|----11.-----11-----11-| 
G|----12.-----12-----12-| x4 
D|-13------13-----12----| 
A|----------------------| 
E|----------------------| 

e|----15.-----15-----15-| 
B|----15.-----15-----15-| 
G|----15.-----15-----15-| x4 
D|-13------13-----12----| 
A|----------------------| 
E|----------------------| 

e|----8.-----8-----8-| 
B|----8.-----8-----8-| 
G|----8.-----8-----8-| x2 
D|-10-----10----10---| 
A|-------------------| 
E|-------------------| 

e|----10.-----10-----10-| 
B|----11.-----11-----11-| 
G|----12.-----12-----12-| x4 
D|-13------13-----12----| 
A|----------------------| 
E|----------------------| 

Playing it on guitar is a bit tricky like that, 
so here's an easier way to play it on guitar. Just memorise 
the different positions, because I'll just tab the 
keyboard out for the rest of the tab: 
Guitar: 
e|----------------| 
B|---8.----8----8-| 
G|---7.----7----7-| x4 
D|---8.----8----8-| 
A|-6-----6----5---| 
E|----------------| 

e|----10.-----10-----10-| 
B|----11.-----11-----11-| 
G|----12.-----12-----12-| x4 
D|----------------------| 
A|----------------------| 
E|-11------11-----10----| 

e|----------------| 
B|---4.----4----4-| 
G|---5.----5----5-| x2 
D|---5.----5----5-| 
A|-3-----3----3---| 
E|----------------| 

e|----------------| 
B|---8.----8----8-| 
G|---7.----7----7-| x4 
D|---8.----8----8-| 
A|-6-----6----5---| 
E|----------------| 


Verse: 
"Est ce que je vois" 
Keyboard: 
e|----15.-----15-----15-| 
B|----15.-----15-----15-| 
G|----15.-----15-----15-| x4 
D|-13------13-----12----| 
A|----------------------| 
E|----------------------| 

"De ma chambre" 
e|----8.-----8-----8-| 
B|----8.-----8-----8-| 
G|----8.-----8-----8-| x2 
D|-10-----10----10---| 
A|-------------------| 
E|-------------------| 

"Lasse" 
e|----10.-----10-----10-| 
B|----11.-----11-----11-| 
G|----12.-----12-----12-| x4 
D|-13------13-----12----| 
A|----------------------| 
E|----------------------| 

"Si tu t'endors" 
e|----15.-----15-----15-| 
B|----15.-----15-----15-| 
G|----15.-----15-----15-| x4 
D|-13------13-----12----| 
A|----------------------| 
E|----------------------| 

"Fais vriller" 
e|----8.-----8-----8-| 
B|----8.-----8-----8-| 
G|----8.-----8-----8-| 
D|-10-----10----10---| 
A|-------------------| 
E|-------------------| 

"Briser" 
e|----8.-----8----8-| 
B|----8.-----8----8-| 
G|----8.-----8----8-| x2 
D|-10-----10----8---| 
A|------------------| 
E|------------------| 

e|----8.-----8-----8-| 
B|----8.-----8-----8-| 
G|----8.-----8-----8-| 
D|-10-----10----10---| 
A|-------------------| 
E|-------------------| 

"T'effaces" 
e|----10.-----10-----10-| 
B|----11.-----11-----11-| 
G|----12.-----12-----12-| x4 
D|-13------13-----12----| 
A|----------------------| 
E|----------------------| 


Chorus: 
"Quand vas tu rentrer?" 
Keyboard: 
e|----10.-----10-----10-| 
B|----11.-----11-----11-| 
G|----12.-----12-----12-| x8 
D|-13------13-----12----| 
A|----------------------| 
E|----------------------| 

"J'ai froid" 
e|----8.-----8-----8-| 
B|----8.-----8-----8-| 
G|----8.-----8-----8-| x2 
D|-10-----10----10---| 
A|-------------------| 
E|-------------------| 

e|----10.-----10-----10-| 
B|----11.-----11-----11-| 
G|----12.-----12-----12-| x4 
D|-13------13-----12----| 
A|----------------------| 
E|----------------------| 


The rest of the band comes in: 
Verse: 
"Est ce que j'entends" 
e|----15.-----15-----15-| 
B|----15.-----15-----15-| 
G|----15.-----15-----15-| x4 
D|-13------13-----12----| 
A|----------------------| 
E|----------------------| 

"De ma chambre, 
Lasse" 
e|----10.-----10-----10-| 
B|----11.-----11-----11-| 
G|----12.-----12-----12-| x8 
D|-13------13-----12----| 
A|----------------------| 
E|----------------------| 

"Les phares de la rue" 
e|----15.-----15-----15-| 
B|----15.-----15-----15-| 
G|----15.-----15-----15-| x4 
D|-13------13-----12----| 
A|----------------------| 
E|----------------------| 

I love this bassline so much that I've tabbed it for guitar. There's variations 
that I haven't tabbed, but this is the basic template for it: 
e|-----------------| 
B|-----------------| 
G|-----------------| x4 
D|----5------------| 
A|-6-----6-5----5--| 
E|------------6----| 

e|------------------| 
B|------------------| 
G|------------------| x2 
D|----1-------------| 
A|-3-----3----1.-1--| 
E|---------3--------| 

e|-----------------| 
B|-----------------| 
G|-----------------| 
D|----1--0---------| 
A|-3-------1----1--| 
E|------------3----| 

e|-----------------| 
B|-----------------| 
G|-----------------| 
D|----1--0---------| 
A|-3-------1--3-5--| 
E|-----------------| 


Small breakdown: 
"Ton ivresse" 
Keyboard: 
e|-----------------------------------------------------| 
B|-----------------------------------------------------| 
G|-----------------------------------------------------| 
D|-13--13--12---12--12--12---12--12--12---12--12--12---| 
A|-----------------------------------------------------| 
E|-----------------------------------------------------| 


Pre-Chorus 
"Passe" 
Keyboard: 
e|----10.-----10-----10-| 
B|----11.-----11-----11-| 
G|----12.-----12-----12-| x4 
D|-13------13-----12----| 
A|----------------------| 
E|----------------------| 

Guitar hits this chord: 
e|-6--------------------| 
B|-8--------------------| 
G|-7--------------------| 
D|-8--------------------| 
A|-6--------------------| 
E|----------------------| 


Chorus: 
"Quand vas tu rentrer?" 
Keyboard: 
e|----10.-----10-----10-| 
B|----11.-----11-----11-| 
G|----12.-----12-----12-| x4 
D|-13------13-----12----| 
A|----------------------| 
E|----------------------| 

e|----8.-----8-----8-| 
B|----8.-----8-----8-| 
G|----8.-----8-----8-| x2 
D|-10-----10----10---| 
A|-------------------| 
E|-------------------| 


Keyboard: 
e|----10.-----10-----10-| 
B|----11.-----11-----11-| 
G|----12.-----12-----12-| x2 
D|-13------13-----12----| 
A|----------------------| 
E|----------------------| 

Guitar hits this chord again at this part: 
e|-6--------------------| 
B|-8--------------------| 
G|-7--------------------| 
D|-8--------------------| 
A|-6--------------------| 
E|----------------------| 


"Quand vas..." 
Keyboard: 
e|----10.-----10-----10-| 
B|----11.-----11-----11-| 
G|----12.-----12-----12-| x2 
D|-13------13-----12----| 
A|----------------------| 
E|----------------------| 

"...tu rentrer? 
Keyboard: 
e|----15.-----15-----15-| 
B|----15.-----15-----15-| 
G|----15.-----15-----15-| x4 
D|-13------13-----12----| 
A|----------------------| 
E|----------------------| 

Synth lead: 
e|----10--10/11--\8--------------10----10--| 
B|-11------------------11.-----------------| 
G|--------------------------12------12-12--| 
D|-----------------------------------------| 
A|-----------------------------------------| 
E|-----------------------------------------| 


Keyboard: 
e|----10.-----10-----10-| 
B|----11.-----11-----11-| 
G|----12.-----12-----12-| x6 
D|-13------13-----12----| 
A|----------------------| 
E|----------------------| 

Guitar hits this chord again: 
e|-6--------------------| 
B|-8--------------------| 
G|-7--------------------| 
D|-8--------------------| 
A|-6--------------------| 
E|----------------------| 


Verse: 
"Est ce que tu le vois, 
Notre amour, 
Qui passe"  
This verse swaps the keyboard for a guitar: 
Guitar: 
e|----------------| 
B|-8-8--8-8--8--8-| 
G|-7-7--7-7--7--7-| x10 
D|-8-8--8-8--8--8-| 
A|-6-6--6-6--5--5-| 
E|----------------| 


Band comes back in: 
"Est ce que t?écris là" 
Guitar: 
e|----------------| 
B|-8-8--8-8--8--8-| 
G|-7-7--7-7--7--7-| x4 
D|-8-8--8-8--8--8-| 
A|-6-6--6-6--5--5-| 
E|----------------| 

"Tu ne liras, 
Jamais" 
e|----------------| 
B|-4-4--4-4--4--4-| 
G|-5-5--5-5--5--5-| x4 
D|-5-5--5-5--5--5-| 
A|-3-3--3-3--3--3-| 
E|----------------| 

A synth plays this arpeggio - it's tricky to play on guitar 
in those higher frets so you can move it down an 
octave (back 12 frets) and play it like that instead: 
e|-15----------------15---------------15--| 
B|--15--------------15---------------15---| 
G|---15------------15---------------15----| 
D|----17----------17---------------17-----| 
A|------18--17--18------------------------| 
E|----------------------------------------| 


"De traces" 
Keyboard: 
e|----------------| 
B|-8-8--8-8--8--8-| 
G|-7-7--7-7--7--7-| x4 
D|-8-8--8-8--8--8-| 
A|-6-6--6-6--5--5-| 
E|----------------| 


Chorus: 
"Quand vas tu changer?" 
Piano (you can also play them as power chords instead): 
e|-6----8---10---13---13---------------| 
B|-8---10---11---15---15---------------| 
G|-8---10---12---14---14---------------| 
D|-8---10---12---15---15---------------| 
A|-6----8---10---13---13---------------| 
E|-------------------------------------| 

Guitar: 
e|----------------| 
B|-8-8--8-8--8--8-| 
G|-7-7--7-7--7--7-| x4 
D|-8-8--8-8--8--8-| 
A|-6-6--6-6--5--5-| 
E|----------------| 


Guitar: 
e|----------------| 
B|-4-4--4-4--4--4-| 
G|-5-5--5-5--5--5-| x4 
D|-5-5--5-5--5--5-| 
A|-3-3--3-3--3--3-| 
E|----------------| 

Guitar lead: 
e|-6--------------------| 
B|-8--------8-----------| 
G|-7------------8---7---| 
D|-8--------------------| 
A|-6--------------------| 
E|----------------------| 


Guitar: 
e|----------------| 
B|-8-8--8-8--8--8-| 
G|-7-7--7-7--7--7-| x4 
D|-8-8--8-8--8--8-| 
A|-6-6--6-6--5--5-| 
E|----------------| 


The instruments pause for a bit and the synth hits this chord: 
e|-10-----------------| 
B|-11-----------------| 
G|-12-----------------| 
D|-12-----------------| 
A|--------------------| 
E|--------------------| 


Chorus: 
"Quand vas tu rentrer?" 
Piano: 
e|-6----8---10---13---13---------------| 
B|-8---10---11---15---15---------------| 
G|-8---10---12---14---14---------------| 
D|-8---10---12---15---15---------------| 
A|-6----8---10---13---13---------------| 
E|-------------------------------------| 

Keyboard: 
e|----10.-----10-----10-| 
B|----11.-----11-----11-| 
G|----12.-----12-----12-| x2 
D|-13------13-----12----| 
A|----------------------| 
E|----------------------| 

e|----15.-----15-----15-| 
B|----15.-----15-----15-| 
G|----15.-----15-----15-| x4 
D|-13------13-----12----| 
A|----------------------| 
E|----------------------| 

e|----8.-----8-----8-| 
B|----8.-----8-----8-| 
G|----8.-----8-----8-| x2 
D|-10-----10----10---| 
A|-------------------| 
E|-------------------| 

e|----10.-----10-----10-| 
B|----11.-----11-----11-| 
G|----12.-----12-----12-| x2 
D|-13------13-----12----| 
A|----------------------| 
E|----------------------| 

e|----15.-----15-----15-| 
B|----15.-----15-----15-| 
G|----15.-----15-----15-| x2 
D|-13------13-----12----| 
A|----------------------| 
E|----------------------| 


Outro: 
Guitar: 
e|----------------| 
B|-8-8--8-8--8--8-| 
G|-7-7--7-7--7--7-| x4 
D|-8-8--8-8--8--8-| 
A|-6-6--6-6--5--5-| 
E|----------------| 

Synth: 
e|------------------| 
B|-3----------------| 
G|-3----------------| x2 
D|-5----------------| 
A|-5----------------| 
E|------------------| 


End with this chord: 
Synth: 
e|------------------| 
B|-3----------------| 
G|-3----------------| 
D|-5----------------| 
A|-5----------------| 
E|------------------| 



************************************ 

| /   slide up 
| \   slide down 
| h   hammer-on 
| p   pull-off 
| ~   vibrato 
| +   harmonic 
| x   Mute note 
| .   staccato 
| b   Bend 
| pb  Pre-bend 
| br  Bend release 
| pbr Pre-bend release 
| brb Bend release bend 

************************************ 
		  

See also:

tabs Soko - How Are You tabs Tété - Le Magicien tabs Tété - Les Rallyes tabs Tété - Le Sacre Des Lemmings (interlude) tabs Tété - Je L'appelle De Mes Voeux tabs Melody's Echo Chamber - Bisou Magique
e-chords

Other versions:

tabs Melody's Echo Chamber - Quand Vas Tu Rentrer
auto scroll beats size up size down change color hide chords drawings
tab show chords e-chords YouTube Clip e-chords hide all tabs e-chords go to top tab

share