Tété

Le Magicien

Tété

tabs nolevel nolevel

by  BRUNBLAZKOWSKI

save to print version add songbook text version e-mail correct tuner
chordsukulelecavacokeyboardtabbassdrumsharmonicaflute Guitar Pro
close

there isn't a video lesson for this song

chords

Le Magicien

	  		  -= Les accords =- 

Attention ! Je donne les accords suivants uniquement pour montrer 
la position des doigts. Ainsi certains noms des accords sont faux... 

Les doigts sont numérotés de l'index ŕ  l'auriculaire (1 ŕ  4), et 5  
pour le pouce. Lorsqu'il y a un 'b', c'est un barré. 



nom   | cases  | doigts 
---------------------- 
      | EADGBe | EADGBe  
      |	       | 
E7    | 022130 | 023140   
E6    | 022120 | 023140 
Cmaj7 | 022010 | 023010 
Em    | 022000 | 023000 
Dsus2 | xx0230 | xx0230	 
A6    | x42222 | x31111  b 
Dmaj9 | x52222 | x41111  b 
A     | 5x222x | 4x111x  b 
C+    | 4x211x | 4x211x  b 




   -= Intro =- 


    -   1   -   2   -   3   -   4   -   5   -   6   -   7   -   8	 


    E7				              	      		 
e|--------------0--------------------------------------------------| 
B|----------------------3-------3-------3-------3------------------| 
G|----------------------x-------x-------x-------x------------------| 
D|------------------------------------------2-------0--------------| 
A|----------------------------------2------------------------------| 
E|------x---x------(0)------(0)-------------------------5-^-v-3p0--| 



    E7				              	      		 
e|-----------------------------------------------------------------| 
B|------3-------3-------3-------3-------3-------3------------------| 
G|------x-------x-------x-------x-------x-------x------------------|   
D|----------2-------2-------2-------2-------2-------0--------------| 
A|-----------------------------------------------------------------| 
E|--0---------------------------------------------------5-^-v-3p0--| 



   -= Couplet 1 =- 

		 

    -   1   -   2 
		  

Full key step upFull key step up
Half key step upHalf key step up
Half key step downHalf key step down
Full key step downFull key step down
hide glossary

See also:

tabs Tété - Le Meilleur Des Mondes tabs Tété - La Relance tabs Tété - Le Sacre Des Lemmings (interlude) tabs Soko - Sweet Sound Of Ignorance tabs Lara Fabian - Love By Grace tabs Tété - Le Magicien
e-chords

Other versions:

tabs Tété - Le Magicien
auto scroll beats size up size down change color hide chords drawings
tab show chords e-chords YouTube Clip e-chords hide all tabs e-chords go to top tab

share with facebook